>
 >
Ghost

Ghost Guitar Tabs

Operator Please - Ghost chords, tabs, tablatures, lyrics

Guitar lessons | Add/correct | Request | Top 50 tabs Artists:  A B C D E F G H I J K L M N O P Q R S T U V W X Y Z 0-9

Ghost Guitar Tabs – Operator Please

CD, Sheet music, Poster

Do you like Ghost? Share with your friends now
Tabs
----------------------------------------------------------------------------
----------------------------------------------------------------------------

Tuning: Standard

Verse 1:
e|-----------------------|
B|-----------------------|
G|-----------------------|
D|-----------------------|
A|--------------242------|
E|---444-2-4-444---------|X4


Then continue onto:

e|-----------------------|
B|-----------------------|
G|------------464--------|
D|-666-4-6-666-----------|
A|-----------------------|
E|-----------------------|X4

Part before chorus:
e|---------------------------------|
B|---------------------------------|
G|---------------------------------|
D|--6-6-6-6-6-6-6-6-6-6-6-6-6-6-6-6|
A|---------------------------------|
E|---------------------------------|

1st chorus:
e|-------------------------------------------------------------------------|
B|-------------------------------------------------------------------------|
G|-------------------------------------------------------------------------|
D|-----------44444444----------66666666---------44444444-------------------|
A|-----------22222222----------44444444---------22222222-------------------|
E|--444-2-242---------444-2-242--------444-2-242--------444-2-2424-442242|X2


Part after chorus:
e|-------------------|---|------------------|---|
B|-------------------|---|-------------4444-|---|
G|-------------------|---|-----44446666-----|---|
D|--6-6-6-6-6-6-6-64-|X4-|-6666-------------|---|
A|-------------------|---|------------------|X4-|
E|-------------------|---|------------------|---|

Verse 2:
e|-----------------------|
B|-----------------------|
G|-----------------------|
D|-----------------------|
A|--------------242------|
E|---444-2-4-444---------|X4


Then continue onto:

e|-----------------------|
B|-----------------------|
G|------------464--------|
D|-666-4-6-666-----------|
A|-----------------------|
E|-----------------------|X4

Part before second chorus:
e|------------------------------------------------------|
B|------------------------------------------------------|
G|--4-6-4--4-6-4--4-6-4--4-6-4--4-6-4--4-6-6-6-4--4-6-4-|
D|-6-----6------6------6------6------6----------6-------|
A|------------------------------------------------------|
E|------------------------------------------------------|

2nd chorus:
e|-------------------------------------------------------------------------|
B|-------------------------------------------------------------------------|
G|-------------------------------------------------------------------------|
D|-----------44444444----------66666666---------44444444-------------------|
A|-----------22222222----------44444444---------22222222-------------------|
E|--444-2-242---------444-2-242--------444-2-242--------444-2-2424-442242|X2

"i've been running low on thers" part:
e|--------------------------------------------------|
B|--------------------------------------------------|
G|----4-4---4-4---4-4---4-4---4-4---4-4---4-4---4-4-|x2
D|-6-6---6-6---6-6---6-6---4-4---4-4---4-4---4-4----|
A|--------------------------------------------------|
E|--------------------------------------------------|

part before 3rd chorus:
e|-------------------|
B|-------------------|
G|-------------------|
D|--6-6-6-6-6-6-6-64-|X2
A|-------------------|
E|-------------------|


3rd chorus:
e|-------------------------------------------------------------------------|
B|-------------------------------------------------------------------------|
G|-------------------------------------------------------------------------|
D|-----------44444444----------66666666---------44444444-------------------|
A|-----------22222222----------44444444---------22222222-------------------|
E|--444-2-242---------444-2-242--------444-2-242--------444-2-2424-442242--|

e|-------------------------------------------------------------------------|
B|-------------------------------------------------------------------------|
G|-------------------------------------------------------------------------|
D|-----------44444444----------66666666---------44444444-------------------|
A|-----------22222222----------44444444---------22222222-------------------|
E|--444-2-242---------444-2-242--------444-2-242--------444-2-2424-44444---|

                                THE END! 





Comments


Popular Operator Please tabs & chords
Other Song Bass Tabs
Pantomime Chords
Crash Tragic Tabs
Get What You Want Intro Tabs
Just A Song About Ping Pong Tabs
Leave It Alone Tabs
Leave It Alone Intro Tabs
Yes Yes Tabs
Zero Zero 1 Tabs
Pantomime Ukulele


Song lyrics



↑ Back to top | Tablatures and chords are parodies/interpretations of the original songs. You may use it for private study, scholarship, research or language learning purposes only
© 2014 AZChords.com Contact us | Privacy policy | DMCA | Add/correct tabs | Request tabs | Top 50 tabs