» » »

Operator Please, Get What You Want Bass tabs (ver.1)

Artists:  A B C D E F G H I J K L M N O P Q R S T U V W X Y Z # 

Get What You Want Bass tabs (ver.1)

Operator Please Tabs
 Rating:
4.6/5 (9 votes)
Get What You Want lessons Tabs too difficult? Try these video lessons and learn fast
                 BAND: OPERATOR PLEASE
 TIME: 3:54

i have decided to put all the parts i know together on one tab. cosidering i am mainly a 
and this is my first ever tab, the guitar chords will not be there, just mainly single 
anyway, i hope it helps a few people out! :]

BASS

verse x15 [0:00 - 0:41]
g|--------------------------|
d|----------------------2-4-|
a|---------2-4--0--2-2------|
e|-0--2-2-------------------|

chorus x2 [0:41 - 0:53]
g|--------------------------|
d|----------22222222--------|
a|-44444444-----------------|
e|-------------------2------|

verse x10 [0:53 - 1:22]
g|--------------------------|
d|----------------------2-4-|
a|---------2-4--0--2-2------|
e|-0--2-2-------------------|

chorus x4 [1:22 - 1:46]
g|--------------------------|
d|----------22222222--------|
a|-44444444-----------------|
e|-------------------2------|

1st interlude [1:46 - 2:07]
g|--------------------------|
d|--------2-2~--4-4~--2-2~--|
a|-4-4~---------------------|
e|--------------------------|

[2:07 - 2:13]
g|--------------------------|
d|-2~~~--2~~~--2~~~--2~~~---|
a|--------------------------|
e|--------------------------|

optional keys part [2:13 - 2:37]
g|------------------------------------------------|
d|-4~~-2------------------------------------------|
a|-------4~~-2-2-4-4~-22222-4-4~-2-0--------------|
e|-----------------------------------2-2-2~~-4-1~-|

verse x3 [2:37 - 2:46]
g|--------------------------|
d|----------------------2-4-|
a|---------2-4--0--2-2------|
e|-0--2-2-------------------|

chorus x4 [2:46 - 3:12]
g|--------------------------|
d|----------22222222--------|
a|-44444444-----------------|
e|-------------------2------|

2nd interlude [3:12 - 3:34]
g|--------------------------|
d|--------2-2~--4-4~--2-2~--|
a|-4-4~---------------------|
e|--------------------------|

[3:34 - 3:54]
g|--------------------------|
d|-2~~~--2~~~--2~~~--2~~~---|
a|--------------------------|
e|--------------------------|

GUITAR

main riff
e|---------------00-------22-------4-|
b|-2-1-2--22-222----2-222----2-222---|
g|-----------------------------------|
d|-----------------------------------|
a|-----------------------------------|
e|-----------------------------------|

verse
e|-----------------------------------|
b|-2-1-2-----------------------------|
g|-----------------------------------|
d|-----------------------------------|
a|-----------------------------------|
e|-----------------------------------|
            
Submit corrections

comments powered by Disqus
↑ Back to top | Operator Please Bass for Get What You Want. Lyrics for acoustic guitar and electric guitar. Tablatures and chords are parodies/interpretations of the original songs. You may use it for private study, scholarship, research or language learning purposes only