» » »

Operator, What You Get Tabs (ver.1)

Artists:  A B C D E F G H I J K L M N O P Q R S T U V W X Y Z # 

What You Get Tabs (ver.1)

Operator Tabs
Rating:
5/5 (2 votes)
What You Get lessons Tabs too difficult? Try these video lessons and learn fast
                Intro

e ---------------------------------------------|
B ---------------------------------------------|
G ---------------------------------------------|
D 12-10-12-0--3--0--5--0-12-10-12-0--3--0--5b--|
A 12-10-12-0--3--0--5--0-12-10-12-0--3--0--5b--|
D 12-10-12-0--3--0--5--0-12-10-12-0--3--0--5b--|

Verse - Palm Muted
() = Not played first measure of first verse

e --------------------------|
B --------------------------|
G --------------------------|
D (3-0)-3-0--0-3--0--0-5--0-|
A (3-0)-3-0--0-3--0--0-5--0-|
D (3-0)-3-0--0-3--0--0-5--0-|

Chorus

e ----------------------------------------------|
B ----------------------------------------------|
G ----------------------------------------------|
D 12-10-12-0--3--0--5--0-12-10-12-0--3--0--5--0-|
A 12-10-12-0--3--0--5--0-12-10-12-0--3--0--5--0-|
D 12-10-12-0--3--0--5--0-12-10-12-0--3--0--5--0-|

Bridge

e -----------------------------------------------------------------|
B -----------------------------------------------------------------|
G -----------------------------------------------------------------|
D 5--3-5--3-5-3-5--3-5--3-6-5-3-5--5--5-3--5--3-5--0-10--12--------|
A 5--3-5--3-5-3-5--3-5--3-6-5-3-5--5--5-3--5--3-5--0-10--12--------|
D 5--3-5--3-5-3-5--3-5--3-6-5-3-5--5--5-3--5--3-5--0-10--12--------|

e ---------------------------|
B ---------------------------|
G ---------------------------|
D 8---5------12--------8---5-|
A 8---5------12--------8---5-|
D 8---5------12--------8---5-|

Interlude

e ------------------------------------------------------|
B ------------------------------------------------------|
G ------------------------------------------0-----------|
D 4-------------4-------------3-------------------------|
A ----5p0h3h5-------5p0h3h5-------5p0h3h5-------5p0h3h5-|
D ------------------------------------------------------|
            

comments powered by Disqus
↑ Back to top | Operator Tabs for What You Get. Lyrics for acoustic guitar and electric guitar. Tablatures and chords are parodies/interpretations of the original songs. You may use it for private study, scholarship, research or language learning purposes only