» » »

Operator, Nothing To Lose Tabs (ver.1)

Artists:  A B C D E F G H I J K L M N O P Q R S T U V W X Y Z # 

Nothing To Lose Tabs (ver.1)

Operator Tabs
 Rating:
4/5 (4 votes)
Nothing To Lose lessons Tabs too difficult? Try these video lessons and learn fast
1
                -------------------------------------------------------------------------------
-------------------------------------------------------------------------------
Tuning: Drop D

Intro
Guitar 1
e|---------------------------------------------------------------------------|
B|-8~-------6~-------4~-------6~---------------------------------------------|
G|-7~-------5~-------3~-------5~---------------------------------------------|
D|-5~-------3~-------1~-------3~-------8~---3~---5555555555555555------------|
A|-------------------------------------8~---3~---5555555555555555------------|
E|-------------------------------------8~---3~---5555555555555555------------|
Guitar 2
e|---------------------------------------------------------------------------|
B|---------------------------------------------------------------------------|
G|-12-14-15-14-12~--17-15-14-12~---------------------------------------------|
D|---------------------------------------------------------------------------|
A|---------------------------------------------------------------------------|
E|---------------------------------------------------------------------------|

Pre-Verse  (those are 11's and 10's)
e|---------------------------------------------------------------------------|
B|---------------------------------------------------------------------------|
G|---------------------------------------------------------------------------|
D|-5-5--11-10-8-5-55-11-10-8-10\5-5--11-10-8-5--5-11-10-8-3/5----------------|
A|-5-5--11-10-8-5-55-11-10-8-10\5-5--11-10-8-5--5-11-10-8-3/5----------------|
E|-5-5--11-10-8-5-55-11-10-8-10\5-5--11-10-8-5--5-11-10-8-3/5----------------|

Verse
e|---------------------------------------------------------------------------|
B|---------------------------------------------------------------------------|
G|---------------------------------------------------------------------------|
D|-------------------------------3/5-------------------------------8-8-888---|
A|-5-5-5-5-5-5-5-5-5-5-5-5-5-5-5-3/5-5-5-5-5-5-5-5-5-5-5-5-5-5-5-5-8-8-888---|
E|-5-5-5-5-5-5-5-5-5-5-5-5-5-5-5-3/5-5-5-5-5-5-5-5-5-5-5-5-5-5-5-5-8-8-888---|
   * * * * * * * * * * * * * * *     * * * * * * * * * * * * * * *
e|---------------------------------------------------------------------------|
B|---------------------------------------------------------------------------|
G|---------------------------------------------------------------------------|
D|-3-33-333-3/5-55-8\5-55-3/5-55-8\5-55-3/5-55-8\5-55-3/5-55-8\5-55--8-8-888-|
A|-3-33-333-3/5-55-8\5-55-3/5-55-8\5-55-3/5-55-8\5-55-3/5-55-8\5-55--8-8-888-|
E|-3-33-333-3/5-55-8\5-55-3/5-55-8\5-55-3/5-55-8\5-55-3/5-55-8\5-55--8-8-888-|

e|---------------------------------------------------------------------------|
B|---------------------------------------------------------------------------|
G|---------------------------------------------------------------------------|
D|-3-33-333-5-5-5-5-5-5-5-5-5-5-5-5-5-5-5-5-3-3-3-3-3-3-3-3-3-3-3-3-3-3-3-3--|
A|-3-33-333-5-5-5-5-5-5-5-5-5-5-5-5-5-5-5-5-3-3-3-3-3-3-3-3-3-3-3-3-3-3-3-3--|
E|-3-33-333-5-5-5-5-5-5-5-5-5-5-5-5-5-5-5-5-3-3-3-3-3-3-3-3-3-3-3-3-3-3-3-3--|

e|---------------------------------------------------------------------------|
B|---------------------------------------------------------------------------|
G|---------------------------------------------------------------------------|
D|-1-1-1-1-1-1-1-1-1-1-1-1-1-1-1-1-3-3-3-3-3-3-3-3-3-3-3-3-3-3-3-3-----------|
A|-1-1-1-1-1-1-1-1-1-1-1-1-1-1-1-1-3-3-3-3-3-3-3-3-3-3-3-3-3-3-3-3-----------|
E|-1-1-1-1-1-1-1-1-1-1-1-1-1-1-1-1-3-3-3-3-3-3-3-3-3-3-3-3-3-3-3-3-----------|

Chorus "When you got..."
e|-------------------------------------------------|--|----------------------|
B|-------------------------------------------------|--|end with--------------|
G|-------------------------------------------------|--|----------------------|
D|-8-8-888-3-33-333-5-5-5-5-5-5-5-5-5-5-5-5-5-5-5-5|X2|11-10-8-5-------------|
A|-8-8-888-3-33-333-5-5-5-5-5-5-5-5-5-5-5-5-5-5-5-5|--|11-10-8-5-------------|
E|-8-8-888-3-33-333-5-5-5-5-5-5-5-5-5-5-5-5-5-5-5-5|--|11-10-8-5-------------|

Pre-Verse

Verse - cut short

Chorus X4

Solo - Well its taking me longer than i thought to figure this out, sorry.
if you figure it out post it up or post it in a comment/correction. Thanks.

Backing guitar for solo - keep repeating
e|---------------------------------------------------------------------------|
B|---------------------------------------------------------------------------|
G|---------------------------------------------------------------------------|
D|-5-55-588-3-33-333---------------------------------------------------------|
A|-5-55-588-3-33-333---------------------------------------------------------|
E|-5-55-588-3-33-333---------------------------------------------------------|

To Bridge
e|---------------------------------------------------------------------------|
B|---------------------------------------------------------------------------|
G|---------------------------------------------------------------------------|
D|-1-1-1-1-1-1-1-1-1-1-1-1-1-1-1-1-3-3-3-3-3-3-3-3-3-3-3-3-3-3-3-3-----------|
A|-1-1-1-1-1-1-1-1-1-1-1-1-1-1-1-1-3-3-3-3-3-3-3-3-3-3-3-3-3-3-3-3-----------|
E|-1-1-1-1-1-1-1-1-1-1-1-1-1-1-1-1-3-3-3-3-3-3-3-3-3-3-3-3-3-3-3-3-----------|

Bridge - This is just the end of the verse played over

Solo 2 - again, post it up if you can


Well thats what i got
************************************
| * palm mute
| /   slide up
************************************
            
Submit corrections

comments powered by Disqus
↑ Back to top | Operator Tabs for Nothing To Lose. Lyrics for acoustic guitar and electric guitar. 1 Tablatures and chords are parodies/interpretations of the original songs. You may use it for private study, scholarship, research or language learning purposes only