>
 >
Delicate

Delicate Guitar Tabs

Operator - Delicate chords, tabs, tablatures, lyrics

Guitar lessons | Add/correct | Request | Top 50 tabs Artists:  A B C D E F G H I J K L M N O P Q R S T U V W X Y Z 0-9

Delicate Guitar Tabs – Operator

CD, Sheet music, Poster

Do you like Delicate? Share with your friends now
Tabs
Band: Operator
Tuning: Standard
Note: I did the "What You Get" tab by them here as well

Intro

e -0---0---4-------------------------------------|
B -0---0---4-------------------------------------|
G -1-------4------------2---2---2----------------|
D -2-------6------------4---4---2------2h4p2---2-|
A -2--------------------4-------0------------4---|
E -0---------------------------------------------|

e -----0---4------4------------------------|
B -----0---4------4------------------------|
G ---------4------------1--2--2--0-2-0-2-0-|
D -2-------6----------4-------2--2-2-2-2-2-|
A -2--------------------------0------------|
E -0---------------------------------------|

Verse

e -----0---4-------------------------------------|
B -----0---4-------------------------------------|
G ---------4------------2---2---2------2---------|
D -2-------6------------4---4---2------2h4p2---2-|
A -2--------------------4-------0------------4---|
E -0---------------------------------------------|

e -----0---4------4------------------------------|
B -----0---4------4--------------------0h2p0-----|
G ---------4------------2---2---2------2-------1-|
D -2-------6------------4---4---2------------4---|
A -2--------------------4-------0----------------|
E -0---------------------------------------------|

e -----0---4------4-------------------------|
B -----0---4------4-------------------------|
G ---------4------------1--2--2--0-2-0-2-0--|
D -2-------6----------4-------2--2-2-2-2-2--|
A -2--------------------------0-------------|
E -0----------------------------------------|

e ---------0----------0h2--0------0-5--0-|
B ---------2----------3----2--2/3--------|
G -2---2---2----------2------------------|
D -4---4---2-----------------------------|
A -4-------0-----------------------------|
E ---------------------------------------|

Chorus - Strumming pattern is pretty easy

e ---------------------------4-------------------------|
B -9------------7------------5-------------------------|
G -9------------8------------6-------------------------|
D -9------------9------------6------------6------7-----|
A -7------------9------------4------------6------7-----|
E --------------7-------------------------4------5-----|

Bridge

e -------------------------------------|
B -------------------------------------|
G -9---9---2----------6---6---4--------|
D -9---9---2----------6---6---4--------|
A -7-------0----------4-------2--------|
E -------------------------------------|

This is played over the above part

e ----------------------------------------------------------------------|
B --------12--14------------------------------------------12------------|
G -11/13----------13\11-9---------13---11\9-11-9h11---11-----11bp9----9-|
D -----------------------------11----------------------------------11---|
A ----------------------------------------------------------------------|
E ----------------------------------------------------------------------|


Palm Muted

e ------------------------------------------------|
B ------------------------------------------------|
G ------------------------------------------------|
D -2--2--2--2--2--2--2--2--6--6--6--6--6--6--6--6-|
A -0--0--0--0--0--0--0--0--4--4--4--4--4--4--4--4-|
E ------------------------------------------------|

e ----------------------------------------------------------------|
B ----------------------------------------------------------------|
G -9---9---2----------6---6---2----------9---9---2----------6---6-|
D -9---9---2----------6---6---2----------9---9---2----------6---6-|
A -7-------0----------4-------0----------7-------0----------4-----|
E ----------------------------------------------------------------|

Palm Muted

e ---------------------------------|
B ---------------------------------|
G ---------------------------------|
D -2-2-2-2-2-2-2-2-2-2-2-2-2-2-2-2-|
A -0-0-0-0-0-0-0-0-0-0-0-0-0-0-0-0-|
E ---------------------------------|

Chorus 2x

Then play this 3x

e ------------------------------|
B ------------------------------|
G -9---9---2----------6---6---2-|
D -9---9---2----------6---6---2-|
A -7-------0----------4-------0-|
E ------------------------------|

Then play this 3x

e -------------------|
B -------------------|
G -6---6---2---------|
D -6---6---2---------|
A -4-------0---------|
E -------------------|

End Riff

e -----------------------------------------------------------|
B -------------------------------------------------------12--|
G -9------9----------------------------------------------11b-|
D -9h11---9----9----9------------------7---7-----------------|
A -------------9h11---11-11----7---7---7h9-7---7-------------|
E -----------------------12----7h9---9-------9---------------|





Comments


Popular Operator tabs & chords
Black Cloud Tabs
Nothing To Lose Tabs
Soulcrusher Tabs
Soulcrusher 1 Tabs
What You Get Tabs


Song lyrics



↑ Back to top | Tablatures and chords are parodies/interpretations of the original songs. You may use it for private study, scholarship, research or language learning purposes only
© 2014 AZChords.com Contact us | Privacy policy | DMCA | Add/correct tabs | Request tabs | Top 50 tabs