>
 >
Black Cloud

Black Cloud Guitar Tabs

Operator - Black Cloud chords, tabs, tablatures, lyrics

Guitar lessons | Add/correct | Request | Top 50 tabs Artists:  A B C D E F G H I J K L M N O P Q R S T U V W X Y Z 0-9

Black Cloud Guitar Tabs – Operator

CD, Sheet music, Poster

Do you like Black Cloud? Share with your friends now
Tabs
Band: Operator
Tuning: Drop D

Verse - Palm Muted

e -----------------------------------------------------|
B -----------------------------------------------------|
G -----------------------------------------------------|
D -10-10-10-10-9-9-9-9-9-9-9-9-9-9-9-9-7-7-7-7-7-7-7-7-|
A -7--7--7--7--7-7-7-7-7-7-7-7-7-7-7-7-5-5-5-5-5-5-5-5-|
D -----------------------------------------------------|

e -----------------|
B -----------------|
G -----------------|
D -5-5-5-5-5-5-5-5-|
A -3-3-3-3-3-3-3-3-|
D -----------------|

Pre-Chorus

e ---------------------------------------------------------------|
B ---------------------------------------------------------------|
G ------------------------------------------------------2--------|
D -5--5--4-------------9--9--7--------------2--5--4--5-----4/5-2-|
A -5--------7--5-------9--------10--9-------2--------------------|
D -5-------------------9--------------------2--------------------|

e -----------------|
B -----------------|
G -5--------5------|
D -5-----5---------|
A -3---------------|
D -----------------|

Chorus              This is not played on
                    the last line
e ---------------|------------------------|
B ---------------|------------------------|
G ---------7---7-|------------------------|
D -5---5---7---7-|--2---2--0-2--0-2--2--2-|
A -5---5---5---5-|--2---2--0-2--0-2--2--2-|
D -5---5---------|--2---2--0-2--0-2--2--2-|

This is played over the chorus

e ---------3---------------2---------------0---------------0-------|
B -------0---0-----------3---3-----------0---0---0-------0---0-----|
G -----0-------0-----2---------2-0-----0-------0---0---0-------0---|
D ---0-----------0-0---0-------------2---------------2-----------2-|
A -----------------------------------------------------------------|
D -5-------------------------------2-------------------------------|

Bridge

e ---
B ---
G ---
D -5- Strum 32x
A -3-
D ---

e ---------------------------------------------------|
B ---------------------------------------------------|
G ---------------------------------------------------|
D -2--2--2--0-2--0-2--2--2--0-2-2--2--0-2--0-2--2--2-|
A -2--2--2--0-2--0-2--2--2--0-2-2--2--0-2--0-2--2--2-|
D -2--2--2--0-2--0-2--2--2--0-2-2--2--0-2--0-2--2--2-|

e -----------------------------------------------------------------|
B -----------------------------------------------------------------|
G -----------------------------------------------------------------|
D -5-5-5-5-5-5-5-5-5-5-5-5-5-5-5-5-7-7-7-7-7-7-7-7-7-7-7-7-7-7-7-7-|
A -3-3-3-3-3-3-3-3-3-3-3-3-3-3-3-3-5-5-5-5-5-5-5-5-5-5-5-5-5-5-5-5-|
D -----------------------------------------------------------------|

Solo - Played over chorus chords

e ---------------------------------------15-----------------------|
B -12------12------12------12------12-----------------------------|
G -14b16---14b16---14b16---14b16---14b16-----16--14b15p12----14---|
D --------------------------------------------------------14------|
A ----------------------------------------------------------------|
D ----------------------------------------------------------------|

e ---------------------------12-12-15-12-15b17--15p12---------15----------|
B ------------------------12--------------------------15b17------15b17----|
G -12-14b15p12----12-14---------------------------------------------------|
D -------------14---------------------------------------------------------|
A ------------------------------------------------------------------------|
D ------------------------------------------------------------------------|

e ------------------------------------------------12---------------12------|
B -15b17----15b17---15--12---14b15--12------12-12----15---12-12-12----15---|
G -------------------------------------14----------------------------------|
D -------------------------------------------------------------------------|
A -------------------------------------------------------------------------|
D -------------------------------------------------------------------------|

e ----------------------------------------------------|
B -12-15b17p12-----------------------12--12-15b17--15-|
G -------------14b16p12----12---14--------------------|
D ----------------------14----------------------------|
A ----------------------------------------------------|
D ----------------------------------------------------|

Play chorus again

Then this again

e -----------------------------------------------------------------|
B -----------------------------------------------------------------|
G -----------------------------------------------------------------|
D -5-5-5-5-5-5-5-5-5-5-5-5-5-5-5-5-7-7-7-7-7-7-7-7-7-7-7-7-7-7-7-7-|
A -3-3-3-3-3-3-3-3-3-3-3-3-3-3-3-3-5-5-5-5-5-5-5-5-5-5-5-5-5-5-5-5-|
D -----------------------------------------------------------------|

Outro

e ---------------------------------------|
B ---------------------------------------|
G ---------4---4-------------------------|
D -5---5---4---4---2---2--0-2--0-2--2--2-|
A -5---5---2---2---2---2--0-2--0-2--2--2-|
D -5---5-----------2---2--0-2--0-2--2--2-|

Last time through

e -----------------------------|
B -----------------------------|
G ---------4---4---5-----------|
D -5---5---4---4---5-----------|
A -5---5---2---2---3-----------|
D -5---5-----------------------|

e -0--------|
B --0-------|
G ---0------|   Let ring
D ----2-----|
A -----2----|
D ------2---|





Comments


Popular Operator tabs & chords
Delicate Tabs
Nothing To Lose Tabs
Soulcrusher Tabs
Soulcrusher 1 Tabs
What You Get Tabs


Song lyrics



↑ Back to top | Tablatures and chords are parodies/interpretations of the original songs. You may use it for private study, scholarship, research or language learning purposes only
© 2014 AZChords.com Contact us | Privacy policy | DMCA | Add/correct tabs | Request tabs | Top 50 tabs