» » »

Sleep Long Bass tabs (ver.1)

Artists:  A B C D E F G H I J K L M N O P Q R S T U V W X Y Z # 

Sleep Long Bass tabs (ver.1)

Operation Ivy
Rating:
0/5 (0 votes)

Hard to play? Try these video lessons and learn fast.
                This is a Really cool song, Pretty hard to tab out, But once you get it you will like playing it


------------------------------------------4-5-6-7-5-4-----------|
-------1-2-3~~--------------------1-3----5------------7---------|
-3~~~3---------3~~---3-1-0---3~~~3----------------------3-----3-|
------------------3~~------3-------------------------------3----|

                        *[Play Twice]*
[---------------------------------------------------------------------]
[---------0-3-0-0-000000-------------------0-3-0-0-0000000------------]
[-3-333-1--------------------------3-333-1----------------------------]
[------------------------3-333-333-------------------------3-333-3333-]


------------------------------------------------55-33-22-----|
-------------------0-1-2-3-1-0-----2-3-4-5-3-2---------------|
-3-1-0---3-1-0---3-------------3-3------------5----------3---|
-------3-------3-------------------------------------------1-|

---------------------------------------------55-33-22-00-|
-----------------33-11-00------2-3-4-5-3-2---------------|
-3-1-0---3-1-0------------33-3-------------5-------------|
-------3-------3-----------------------------------------|

*[Play Twice]*
[---------------------------------------------------------------------]
[---------0-3-0-0-000000-------------------0-3-0-0-0000000------------]
[-3-333-1--------------------------3-333-1----------------------------]
[------------------------3-333-333-------------------------3-333-3333-]

------------------------------------------------55-33-22-----|
-------------------0-1-2-3-1-0-----2-3-4-5-3-2---------------|
-3-1-0---3-1-0---3-------------3-3------------5----------3---|
-------3-------3-------------------------------------------1-|

---------------------------------------------55-33-22-00-|
-----------------33-11-00------2-3-4-5-3-2---------------|
-3-1-0---3-1-0------------33-3-------------5-------------|
-------3-------3-----------------------------------------|

---------------------------------------------5-3-2-----------------------|
-3-3-33-333-----------------------3-3-33-333-------5-3-2-----------------|
-----------3-3-33-333-5-5-55-5555------------------------5-3-5-5-55-5555-|

------------5-3-2----------------------------------------------------------|
-3-3-33-333-------5-3-2-----------------3-3-33-3333------------------------|
------------------------5-3-5-5-55-5555------------3-3-33-3333-5-5-55-5555-|

----------------------------------|
-------------33---------------33--|
-33------11-------33-------11-----|
----------------------------------|

                              *[Play Twice]*
[---------------------------------------------------------------------]
[---------0-3-0-0-000000-------------------0-3-0-0-0000000------------]
[-3-333-1--------------------------3-333-1----------------------------]
[------------------------3-333-333-------------------------3-333-3333-]

------------------------------------------------55-33-22-----|
-------------------0-1-2-3-1-0-----2-3-4-5-3-2---------------|
-3-1-0---3-1-0---3-------------3-3------------5----------3---|
-------3-------3-------------------------------------------1-|

---------------------------------------------55-33-22-00-|
-----------------33-11-00------2-3-4-5-3-2---------------|
-3-1-0---3-1-0------------33-3-------------5-------------|
-------3-------3-----------------------------------------|

--------------------------------------|
--------------------------------------|
--3~~~~~---------3~~~~~~~~~---------3-|
---------3~~~~~~~---------------------|

Have fun with it
            
Hard to play? Try these video lessons and learn fast. | Correct




comments powered by Disqus
↑ Back to top | Tablatures and chords are parodies/interpretations of the original songs. You may use it for private study, scholarship, research or language learning purposes only