» » »

Room Without A Window Bass tabs (ver.1)

Artists:  A B C D E F G H I J K L M N O P Q R S T U V W X Y Z # 

Room Without A Window Bass tabs (ver.1)

Operation Ivy
Rating:
0/5 (0 votes)

Hard to play? Try these video lessons and learn fast.
                Room Without a Window-Operation Ivy

Intro
-----------0------------------------------------------0-------------
--------------0--------------------------------------------0----------
--3---3---------3-----------------3-------3-----------------3--------

Verse
-------5---2-----------------------------5---2--------------------------
---------------5---3-2---3--5-----------------5-----3--2-------------
--3---------------------5-----------3------------------------5------2--

Chorus
----------------3----------------------------------------
-------3--------------3---------------------------------
--1-1----1-------1-----1----------4------------3------
------------------------------2--2----2--1----------1--

Bridge    3 1/2x
--------------------------------------------------------------
----------------------3-5------------------------------------
-3-3----3-3---3-3--------3-3----3-3---3-3---------2-
--------------------------------------------------------3----

Bridge 2...Play A,B,A,C,A,D

A
----------------------
----------------------
--3-3---3-----2----
------------3--------
B
------------------
--3--2----3-5--
---------5-------
------------------
C
------------------
--3-2------------
--------5-----2--
-----------3------
D
----------------
-3-3-2--------
----------5-2--
-----------------
            
Hard to play? Try these video lessons and learn fast. | Correct




comments powered by Disqus
↑ Back to top | Tablatures and chords are parodies/interpretations of the original songs. You may use it for private study, scholarship, research or language learning purposes only