» » »

Operation Ivy, One Of These Days Bass tabs (ver.1)

Artists:  A B C D E F G H I J K L M N O P Q R S T U V W X Y Z # 

One Of These Days Bass tabs (ver.1)

Operation Ivy Tabs
Rating:
0/5 (0 votes)
One Of These Days lessons Tabs too difficult? Try these video lessons and learn fast
                this song is as tabbed out by Mike Campese, with a few corrections made: for example,
the slide is only played TWICE a pattern

			#1

G -------------------------------*-----*-------------------
D -------------------------------*-----*-------------------
A 2/33-2/33---4-7-4--2/33-2/33---*4-7-4*--2/33-2/33---4-7-4
E ----------5------------------5-*-----*------------5------

G --------------------------------^ 
D --------------------------------^ 
A 5-5-------4-7-4--5-5-------4-7-4^ 
E ----3-3-5------------3-3-5------^ 


BETWEEN THE * * the 2ND TIME YOU PLAY THE INTRO, PLAY

G -----------
D -----------  INSTEAD
A 4h7 4h7 4h7
E -----------

THE 2ND TIME YOU PLAY THE INTRO, PLAY

G -         ^
D -  AT THE ^
A 5         ^
E -         ^

			#2

G -------------------------------------------------
D -----5-4-5-7-7-5-5-4-4---------------------------
A 5-5-------------------7-7-5-5--------------------
E ------------------------------3-3-5-5-5-5-5-5-5-5


			#3

G -------------------          ---------------------
D -------------------  8 TIMES ---------------------
A 5-5-------4-4-4-7-4  THEN    5-5-------4-4-4-7-4-5            
E ----3-3-5----------          ----3-3-5------------


SYMBOLS:

2/3- 2 slide UP to 3
4h7- 4 hammer ON to 7
||--------||
||*------*|| Repeat
||*------*||
||--------||

STRUCTURE:

#1 times 2
DRUM INTERLUDE(no bass)
#2 times 2
#3 play the stuff 9 times:
 dont repeat that 6 times though!

MalevolentM(@dbzmail.com)
            
Submit corrections

comments powered by Disqus
↑ Back to top | Operation Ivy Bass for One Of These Days. Lyrics for acoustic guitar and electric guitar. Tablatures and chords are parodies/interpretations of the original songs. You may use it for private study, scholarship, research or language learning purposes only