» » »

Operation Ivy, Oi Oi Skinhead Tabs (ver.1)

Artists:  A B C D E F G H I J K L M N O P Q R S T U V W X Y Z # 

Oi Oi Skinhead Tabs (ver.1)

Operation Ivy Tabs
Rating:
0/5 (0 votes)
Oi Oi Skinhead lessons Tabs too difficult? Try these video lessons and learn fast
                VERSE:
E:3--3-3--3--3-3--5--5-5--1-1-3-3------------------------------------
B:5--5-5--3--3-3--5--5-5--1-1-3-3------------------------------------
G:5--5-5--4--4-4--6--6-6--2-2-4-4------------------------------------
D:5--5-5--5--5-5--7--7-7--3-3-5-5------------------------------------
A:3--3-3--5--5-5--7--7-7--3-3-5-5------------------------------------
E:--------3--3-3--5--5-5--1-1-3-3------------------------------------

PRECHORUS:
(palm muted)
E:-------------------------------------------------------------------
B:-------------------------------------------------------------------
G:5-5-5-5-5-5--------------------------------------------------------
D:5-5-5-5-5-5-5-5-5-5-5-5-7-7-7-7-7-7-3-3-3-5-5-5--------------------
A:3-3-3-3-3-3-5-5-5-5-5-5-7-7-7-7-7-7-3-3-3-5-5-5--------------------
E:------------3-3-3-3-3-3-5-5-5-5-5-5-1-1-1-3-3-3--------------------

CHORUS:
E:-------------------------------------------------------------------
B:-------------------------------------------------------------------
G:5-5-5-5-5-5-5-5----------------------------------------------------
D:5-5-5-5-5-5-5-5-5-5-5-5-5-5-5-5-7-7-7-7-7-7-7-7-3-3-3-3-5-5-5-5----
A:3-3-3-3-3-3-3-3-5-5-5-5-5-5-5-5-7-7-7-7-7-7-7-7-3-3-3-3-5-5-5-5----
E:----------------3-3-3-3-3-3-3-3-5-5-5-5-5-5-5-5-1-1-1-1-3-3-3-3----
            
Submit corrections

comments powered by Disqus
↑ Back to top | Operation Ivy Tabs for Oi Oi Skinhead. Lyrics for acoustic guitar and electric guitar. Tablatures and chords are parodies/interpretations of the original songs. You may use it for private study, scholarship, research or language learning purposes only