>
 >
Officer

Officer Bass Tabs

Operation Ivy - Officer chords, tabs, tablatures, lyrics

Guitar lessons | Add/correct | Request | Top 50 tabs Artists:  A B C D E F G H I J K L M N O P Q R S T U V W X Y Z 0-9

Officer Bass Tabs – Operation Ivy

CD, Sheet music, Poster

Do you like Officer? Share with your friends now
Bass TabsBass Tabs v2Bass Tabs v3Bass Tabs v4ChordsTabs
This a really cool Operation Ivy Song, and this on is FINISHED

Play in this EXACT order

Tuning- Standard

-6-66666-2-0-----|
-------------4-2-|
-----------------|
-----------------|

-----------------4-5-6--/----------------4-5-6-/--------------4-5-6-|
------------------------/----------------------/--------------------|
-55--5-55-5-------------/55--5-55-5------------/55-5-55-5-----------|
----5-------00-0--------/--5--------00-0-------/--5------00-0-------|

                "Pick it up"
------------/-----------------/-----------------/---------4-5-6-|
------------/-----------------/-------5-0-------/-------5-------|
-55-5-55-5--/-----------------/5-3--3---------3-/5-3--3---------|
---5-------0/-----------------/----5------3-5---/----5----------|

------------------/---------------/---------------------|
--------5-0-------/---------------/-----------------3---|
-5-3--3---------3-/5-3---3-----3-4/-0-000-0-0000---4--4-|
-----5------3-5---/----5---3-5----/--------------3------|

                                                  "He's Just a Fu**ing Cop!"
----------------------------------------/-----------/-----------------------|
----------------------------------------/-----------/-----------------------|
-0-000-0-0000----------0-000000---------/-0-000000--/-----------------------|
--------------3-33-0-1----------3-33-0-1/----------3/-----------------------|

------------------------------------------------------------22222222-2~~-|
-------------5-55-3-----------------------------------5-55-3-------------|
-5-555-5-555--------3-5-555-5-555-------3-5-555-5-555--------------------|
----------------------------------3-33-5---------------------------------|

-----------------4-5-6--/----------------4-5-6-/--------------4-5-6-|
------------------------/----------------------/--------------------|
-55--5-55-5-------------/55--5-55-5------------/55-5-55-5-----------|
----5-------00-0--------/--5--------00-0-------/--5------00-0-------|

------------/-----------------/-----------------/---------4-5-6-|
------------/-----------------/-------5-0-------/-------5-------|
-55-5-55-5--/-----------------/5-3--3---------3-/5-3--3---------|
---5-------0/-----------------/----5------3-5---/----5----------|

------------------/---------------/---------------------|
--------5-0-------/---------------/-----------------3---|
-5-3--3---------3-/5-3---3-----3-4/-0-000-0-0000---4--4-|
-----5------3-5---/----5---3-5----/--------------3------|

                                                   He's Just a Fu**ing Cop!"
----------------------------------------/-----------/-----------------------|
----------------------------------------/-----------/-----------------------|
-0-000-0-0000----------0-000000---------/-0-000000--/-----------------------|
--------------3-33-0-1----------3-33-0-1/----------3/-----------------------|

------------------------------------------------------------22222222-20---|
-------------5-55-3-----------------------------------5-55-3-----------42-|
-5-555-5-555--------3-5-555-5-555-------3-5-555-5-555---------------------|
----------------------------------3-33-5----------------------------------|

---------------------------0/2-----0/2----0/2-----2-0----|
-----------------------------------------------------4-2-|
-5-------5--------3-4---0-0-----0-0----0-0---------------|
--------------3-5----------------------------------------|

------------------------------------------------------------22222222-20---|
-------------5-55-3-----------------------------------5-55-3-----------42-|
-5-555-5-555--------3-5-555-5-555-------3-5-555-5-555---------------------|
----------------------------------3-33-5----------------------------------|

-----
-----
-5---
-----

That it,

                       R.I.P
                   Operation Ivy





Comments


Popular Operation Ivy tabs & chords
Here We Go Again 1 Bass Tabs
I Got No 1 Bass Tabs
One Of These Days 3 Bass Tabs
Sound System Bass Tabs
Voodoo Lady Bass Tabs
Caution Chords
Artificial Life Tabs
Bad Town 1 Tabs
Bankshot Tabs
Unity 1 Tabs


Song lyrics



↑ Back to top | Tablatures and chords are parodies/interpretations of the original songs. You may use it for private study, scholarship, research or language learning purposes only
© 2014 AZChords.com Contact us | Privacy policy | DMCA | Add/correct tabs | Request tabs | Top 50 tabs