>
 >
Left Behind

Left Behind Bass Tabs

Operation Ivy - Left Behind chords, tabs, tablatures, lyrics

Guitar lessons | Add/correct | Request | Top 50 tabs Artists:  A B C D E F G H I J K L M N O P Q R S T U V W X Y Z 0-9

Left Behind Bass Tabs – Operation Ivy

CD, Sheet music, Poster

Do you like Left Behind? Share with your friends now
Bass TabsBass Tabs v2
     Band: Operation Ivy


            
     Intro
     G:----3m-3m-5-3-3m------------------------------------------
     D:--3--------------5-3-0-2-3--------------------------------
     A:3--------------------------3-1-1-1-0-1-0-3-1-0------------
     E:-----------------------------------------------3----------

            
     Verse                   
     That one part
     G:------------------------3-5--|----------3--5--------------
     D:-----------------------------|----------------------------
     A:3-3-3---------3-1-0-1--------|----------------------------
     E:------1-0-1-3---------3------|1-----3---------------------

            
     Other Verse
     G:--------------------|-------------------------------------
     D:--------------------|-------------------------------------
     A:3-1-3-------3-1-3---|--3-2-1-0-------1-1-1-----3-2-1-0----
     E:------3-1-3--------3|----------3-1-3-------0-3----------3-

            
     Chorus
     G:-----------------------------------------------00---------
     D:--------------------0-2-----0-2-------------------33-22-00
     A:--------3-2-0-2---2-------2------------3-2-0-2------------
     E:1-1-1-1---------3-------3------1-1-1-1--------------------

            
     Bass Solo
     G:17b-15----15----15-17-18-18-17-15-------------------------
     D:-------17----17-------------------17-15-15-15-17-17-------
     A:----------------------------------------------------------
     E:----------------------------------------------------------


     G:----------------------------------------------------------
     D:15h17-17-17-17-15----------15-17-17-17-17-15--------------
     A:------------------17-15-17-------------------17-15-13-13--
     E:----------------------------------------------------------

            
     G:-----------------------------------------15-15-15-15-15-15
     D:13----13----13---------13-15-15-15-15-15-15-15-15-15-15---
     A:---15----15-----5-13-15-----------------------------------
     E:----------------------------------------------------------

            
     Bend that last 17 hard, and strum it harder
     G:15-15--17-17-17-15----------15----------15----------17b---
     D:-------------------13-14-15----13-14-15----13-14-15-------
     A:----------------------------------------------------------
     E:----------------------------------------------------------


     The little m's up top are kind of mutes you do with your 
     finger on that fret, muffles that note a little.  The
     verse and chorus don't need much explanation, but the solo
     is pretty fucking tricky, it's just really fast and played
     with a lot of style.  I tried to put it in four parts, learn
     one at a time.  That will make it alot easier.  Have Fun.





Comments


Popular Operation Ivy tabs & chords
Bad Town Bass Tabs
Caution 1 Bass Tabs
One Of These Days 1 Bass Tabs
Sarcastic Bass Tabs
The Crowd 2 Bass Tabs
Unity 5 Bass Tabs
Hedgecore Chords
Here We Go Again Chords
Freeze Up Tabs
Sound System Tabs


Song lyrics



↑ Back to top | Tablatures and chords are parodies/interpretations of the original songs. You may use it for private study, scholarship, research or language learning purposes only
© 2014 AZChords.com Contact us | Privacy policy | DMCA | Add/correct tabs | Request tabs | Top 50 tabs