» » »

Operation Ivy, Knowledge From Energy Tabs (ver.1)

Artists:  A B C D E F G H I J K L M N O P Q R S T U V W X Y Z # 

Knowledge From Energy Tabs (ver.1)

Operation Ivy Tabs
Rating:
0/5 (0 votes)
Knowledge From Energy lessons Tabs too difficult? Try these video lessons and learn fast
                G power chord

  bottom of the barrel.  Wide open road of my future now... it's looking ***
e:x----------------------x---------------------------x------x----------------|
B:x----------------------x---------------------------x------x----------------|
G:x----------------------7---------------------------5------x----------------|
D:5----------------------7---------------------------5------5----------------|
A:5----------------------5---------------------------3------5----------------|
E:3----------------------x---------------------------x------3----------------|




  ing narrow.  All I know is that I don't know, all I I know is that I don't
e:------------x---------------------------------x----------------------x-----|
B:------------x---------------------------------x----------------------x-----|
G:------------7---------------------------------5----------------------x-----|
D:------------7---------------------------------5----------------------5-----|
A:------------5---------------------------------3----------------------5-----|
E:------------x---------------------------------x----------------------3-----|


						    

  know nothing.       (riff repeat 2x)
e:--------------------------------------------------|
B:--------------------8-7-5-------8-7-5------6-6-5--|
G:---------------------------7-777------7-777-----5-|
D:-------------------------------------------------5|
A:--------------------------------------------------|
E:--------------------------------------------------|

***** `&' *********************************************
**     #                                             **
**     #     Any corrections, questions, comments,   **
**    _#_    etc. welcome!                           **
**   ( # )                                           **
**** `---' ********************************************
            

comments powered by Disqus
↑ Back to top | Operation Ivy Tabs for Knowledge From Energy. Lyrics for acoustic guitar and electric guitar. Tablatures and chords are parodies/interpretations of the original songs. You may use it for private study, scholarship, research or language learning purposes only