» » »

Junkie's Running Dry Tabs (ver.1)

Artists:  A B C D E F G H I J K L M N O P Q R S T U V W X Y Z # 

Junkie's Running Dry Tabs (ver.1)

Operation Ivy
Rating:
0/5 (0 votes)

Hard to play? Try these video lessons and learn fast.
                Junkies running dry 
Off hectic ep

Intro/Chorus

D [------------------------5-5--7--9--7--5--------10-10-10-10-----------------5
A [--3-3-3-3--5-5-5-5--3-3--5--7--5--3-------- 8-- 8- -8- 8----5-5-5-5-5--3
E [--1-1-1-1--3-3-3-3----------------------------------------------3-3-3-3-3


Verse

D [------------------------5-5-5-5---
A [--5-5-5-5--3-3-3-3--3-3-3-3--5
E [--3-3-3-3--1-1-1-1-------------3

Pre chorus

D [--3-3-3-3-3-3-3-3-----------------
A [--1-1-1-1-1-1-1-1--5-5-5-5-5-5-5-5         repeat 2 X
E [-----------------------3-3-3-3-3-3-3-3

Chorus


Listen to the song to get the timing and structure of the song
            
Hard to play? Try these video lessons and learn fast. | Correct




comments powered by Disqus
↑ Back to top | Tablatures and chords are parodies/interpretations of the original songs. You may use it for private study, scholarship, research or language learning purposes only