» » »

Operation Ivy, Jaded Tabs (ver.2)

Artists:  A B C D E F G H I J K L M N O P Q R S T U V W X Y Z # 

Jaded Tabs (ver.2)

Operation Ivy Tabs
Rating:
0/5 (0 votes)
Jaded lessons Tabs too difficult? Try these video lessons and learn fast
                Notes: Song's pretty difficult the first time around. Some chords probably arn't right, but it sounds really close. Enjoy, and long live the Ivy.

Intro:
              (x2)                   (x2)
1|---------------------------------------------------
2|---------7-----------------------------------------
3|--5---8--7-----------------9---10------------------
4|--5---6--5-------3---6--5--9---10------------------
5|-----------------3---6--5--7---8-------------------
6|-----------------1---4--3--------------------------
                     (x2)
1|---------------------------------------------------
2|---------------------------------------------------
3|--5--8---7--9--10----------------------------------
4|--5--8---7--9--10----------------------------------
5|--3--6---5--7--8-----------------------------------
6|---------------------------------------------------

Verse:
                 (x2)
1|---------------------------------------------------
2|---------------------------------------------------
3|--5------------------------------------------------
4|--5--6--3---5--------------------------------------
5|--3--6--3---5--------------------------------------
6|-----4--1---3--------------------------------------

Pre-Chorus:
1|---------------------------------------------------
2|---------------------------------------------------
3|---------------------------------------------------
4|---3---5-------------------------------------------
5|---3---5-------------------------------------------
6|---1---3-------------------------------------------

Chorus:
             (x4)
1|---------------------------------------------------
2|---------------------------------------------------
3|--5------------------------------------------------
4|--5--3--5------------------------------------------
5|--3--3--5------------------------------------------
6|-----1--3------------------------------------------

Bridge:
                    (x4)
1|---------------------------------------------------
2|---------------------------------------------------
3|--5--------9--10-----------------------------------
4|--5--6--5--9--10-----------------------------------
5|--3--6--5--7--8------------------------------------
6|-----4--3------------------------------------------

Order:
Intro
Verse
Pre-Chorus
Chorus
Bridge 
Verse
Pre-Chorus
Chorus
Bridge
Chorus
            
Submit corrections

comments powered by Disqus
↑ Back to top | Operation Ivy Tabs for Jaded. Lyrics for acoustic guitar and electric guitar. Tablatures and chords are parodies/interpretations of the original songs. You may use it for private study, scholarship, research or language learning purposes only