» » »

Operation Ivy, I Got No Tabs (ver.1)

Artists:  A B C D E F G H I J K L M N O P Q R S T U V W X Y Z # 

I Got No Tabs (ver.1)

Operation Ivy Tabs
 Rating:
3.6/5 (5 votes)
I Got No lessons Tabs too difficult? Try these video lessons and learn fast
                ----------------------------------------------------------------------------
----------------------------------------------------------------------------

Tuning:standard

e|-------------------------------------------------------------------------|
B|-------------------------------------------------------------------------|
G|--5--5---------3--3---------3--3-----------------------------------------|
D|--5--5--3-3-3--3--3--3-3-3--3--3--3-3-3--3--3--3-3-3---------------------|
A|--3--3--3-3-3--5--5--3-3-3--5--5--3-3-3--3--3--3-3-3---------------------|
E|--------1-1-1--------1-1-1--------1-1-1--5--5--1-1-1---------------------|


| /  slide up
| \  slide down
| h  hammer-on
| p  pull-off
| ~  vibrato
| +  harmonic
| x  Mute note
============================================================================
            
Submit corrections

comments powered by Disqus
↑ Back to top | Operation Ivy Tabs for I Got No. Lyrics for acoustic guitar and electric guitar. Tablatures and chords are parodies/interpretations of the original songs. You may use it for private study, scholarship, research or language learning purposes only