» » »

Operation Ivy, Hoboken Bass tabs (ver.1)

Artists:  A B C D E F G H I J K L M N O P Q R S T U V W X Y Z # 

Hoboken Bass tabs (ver.1)

Operation Ivy Tabs
Rating:
0/5 (0 votes)
Hard to play? Try these video lessons and learn fast.
                Band:Operation Ivy
Bassist:Matt McCall (Matt Freeman)


Intro
-----------------------------|
-----------------------------|
-555555555555555555-5-~~~~---| Bend
-----------------------------|

Chorus
-----------------------------------------------------------|
-----------------------------------------------------------|
-5-5555555-55555555----55555-5-555555-5-5555555-------5555-|
-------------------5555-------------------------5-5555-----|

Verse (Play Very Fast!)
-----------------------------------4-5-6-7-5-4-----------|
-------------------4-5-7---4-5-7-5-------------7-5-4-----|
---2-3-4-5-3-2-0-5-------5---------------------------7-5-|
-3-------------------------------------------------------|

Bridge
---------------------------------|
---------------------------------|
-----5-------5-320------5---234--|
-3-------5----------3------5-----|

Alternate Chorus
-7-7777777------77777-|
-----------7777-------|
----------------------|
----------------------|

Outro
-------------------------------------12-1212-------|
--------------------------------------------12-14--|
----12/14----12/14----12/14----12/14---------------|
-12-------12-------12-------12---------------------|

Order Is Very Simple, The Only Hard Spot Is The Verse and The Outro
            

comments powered by Disqus
↑ Back to top | Operation Ivy Bass for Hoboken. Lyrics for acoustic guitar and electric guitar. Tablatures and chords are parodies/interpretations of the original songs. You may use it for private study, scholarship, research or language learning purposes only