» » »

Operation Ivy, Hoboken Bass tabs (ver.2)

Artists:  A B C D E F G H I J K L M N O P Q R S T U V W X Y Z # 

Hoboken Bass tabs (ver.2)

Operation Ivy Tabs
 Rating:
4/5 (5 votes)
Hoboken lessons Tabs too difficult? Try these video lessons and learn fast
                intro
|-------------------------------|
|-------------------------------|
|--5 -111111111111111111~~~-----| ring andfade out
|-------------------------------|

verse
|------------------------------------------------|
|------------------------------------------------|
|-5555-5555------5555-5555-5555------5555--------|
|-----------5555----------------5555-------------|

|-----------------------------------4-5-6-7-6-5-4-|
|-----------------------4-5-4-5-7-5---------------|
|--2-3-4-5-4-3-2----4-7---------------------------|
|-3---------------5-------------------------------|

|-----------------------------|
|-7-5-4-----------------------|
|-------7-5-4-----------------|
|--------------7-5-3----------|

|-----------------------------------------------------|
|-----------------------------------------------------|
|---3---5-3-2------5---2-3-4-5-5-5-5-----5-5-5-5-5-5--|
|-3---5-------5-3----5---------------5-5--------------|

|-----------------------|
|-----------------------|
|-----5-5---------------|
|-5-5-------------------|
            
Submit corrections

comments powered by Disqus
↑ Back to top | Operation Ivy Bass for Hoboken. Lyrics for acoustic guitar and electric guitar. Tablatures and chords are parodies/interpretations of the original songs. You may use it for private study, scholarship, research or language learning purposes only