» » »

Operation Ivy, Hoboken Tabs (ver.1)

Artists:  A B C D E F G H I J K L M N O P Q R S T U V W X Y Z # 

Hoboken Tabs (ver.1)

Operation Ivy Tabs
 Rating:
4.2/5 (5 votes)
Hoboken lessons Tabs too difficult? Try these video lessons and learn fast
1
                Operation Ivy
“Hoboken” tab

I decided to make a good tab for this track, because it’s one of my favorite Op. Ivy 
Even though some people I know hate it…
This is the first tab I've submitted anywhere.

Standard Tuning
~ = hold note

Intro
----
----
-7~-
-7~-
-5~-
----

While holding note it sounds like “Lint” plays something like this

---------  ---------|
---------  ---------|
----7--7-  ---7---7-|
-77--7---  -7---7---|
---------  ---------|
---------  ---------|

Bridge (where Jesse sings “trapped in this prison…”)
-----------------| x2
-----------------|
-----777-----777-|
-555-777-777-777-|
-555-555-777-555-|
-333-----555-----|

Verse
--------------------|x2
--------------------|
-77777777-----------|
-77777777-7777-5555-|
-55555555-7777-5555-|
----------5555-3333-|

Chorus
----------------------|
----------------------|
-7----7---7-----------|
-7-5-7-7-7-5-77777777-|
-5-5-5-7-5-5-77777777-|
---3----5--3-55555555-|

then

Bridge
Verse
Chorus
Bridge
Verse
Chorus

Then. While Jesse sings the Bridge, play this

-------------|
-------------|
---7----7--7-|
-5-7-7-5-5-5-|
-5-5-7-5-5-5-|
-3---5---3---|

Bridge

and then end on

---
---
-7-
-7-
-5-
---
            
Submit corrections

comments powered by Disqus
↑ Back to top | Operation Ivy Tabs for Hoboken. Lyrics for acoustic guitar and electric guitar. 1 Tablatures and chords are parodies/interpretations of the original songs. You may use it for private study, scholarship, research or language learning purposes only