» » »

Heaven Bass tabs (ver.1)

Artists:  A B C D E F G H I J K L M N O P Q R S T U V W X Y Z # 

Heaven Bass tabs (ver.1)

Operation Ivy
Rating:
0/5 (0 votes)

Hard to play? Try these video lessons and learn fast.
                the bass is tuned a half step to flat  Eb Ab Db Gb on this one
But you can play it with Standard GDAE sound just as good the cd was also live so yeah 
make the call on if its right let my know if its wrong so i can stop playin it that way 
thanks ~K~

Intro after guitar
|---------------------------------|
|---------------------------------|
|-------6--------------6----------|
|----8-----6---4\8------6---4\8---|

    be for the Chorus
|----------------------------------|
|----------------------------------|     Note ~ let the note ring
|----------------------------------|
|--1-1--3-4~-4-3-1~-1-1-3-4~-------|

  Chorus
|--------------------------------------|
|--------------------------------------|
|--6~-6~-6-8---------------------------|
|-----------------6~6~-8~-8~-4~-4~-----|

  Back to Intro (Verse)
|-----------------------------------------------------|
|-----------------------------------------------------|
|-------6--------------6-----------   Play  verse X 2-|
|----8-----6---4\8-------6---4\8----------------------|

 i think gos to pre-Chorus again
|----------------------------------|
|----------------------------------|
|----------------------------------|
|--1-1--3-4~-4-3-1~-1-1-3-4~-------|

  think back to chorus
|-------------------------------------|
|-------------------------------------|
|-6~-6~-6-8---------------------------|
|-----------------6~6~-8~-8~-4~-4~----|

Then a solo play this   2X
|-----8----------------8-----------|
|---8----------------8-------------|
|-6----------------6---------------|
|-------4~8~----------4~-8~--------|


|-----------------------|
|-----------------------|
|-------6---------------|     note: think the slid just gos down the hole neck
|----8-----6---4\-------|


|-------------------------------|
|-------------------------------|
|-------------------------------|
|--1-1--3-4~--4-3-1~--1-1-3-4~--|


|------5-6-8~--10-8---------------------------------6--8---15-------|
|-6-8-----------------8-10-8~-10/13~--10~--8---6--6-----8------15---|
|-------------------------------------------------------------------|
|-------------------------------------------------------------------|

 pull off the 8 and ring open
|------------------------------------------|
|------------------------------------------|
|--6~--6~-6~--8p~--------------------------|
|-------------------6~--6~--8~--8~--4~--4~-|
            
Hard to play? Try these video lessons and learn fast. | Correct




comments powered by Disqus
↑ Back to top | Tablatures and chords are parodies/interpretations of the original songs. You may use it for private study, scholarship, research or language learning purposes only