>
 >
Healthy Body, Sick Mind

Healthy Body, Sick Mind Bass Tabs

Operation Ivy - Healthy Body, Sick Mind chords, tabs, tablatures, lyrics

Guitar lessons | Add/correct | Request | Top 50 tabs Artists:  A B C D E F G H I J K L M N O P Q R S T U V W X Y Z 0-9

Healthy Body, Sick Mind Bass Tabs – Operation Ivy

CD, Sheet music, Poster

Do you like Healthy Body, Sick Mind? Share with your friends now
Bass TabsTabs
G:----------------------------------------------------------------|
D:-----------------------2-3-4-5-3-2-0--------------------2-3-4-5-|
A:-5-5-5-3-2-0----2-3-5-3--------------3-2-0-----2-3-5-3----------|
E:-------------3-------------------------------3------------------|


G:---------------------------------------------------------------|
D:-3-2-0-0-------------------------------------------------------|
A:---------------------------------------------------------------|
E:---------10/3-3------------------------------------------------|

verse
G:---------------------------------------------------------------|
D:-------2-------2---------------------------2-5-3-2-0-----------|
A:---2-5-----2-5---3-2-0-2-5-5-5-3-2-0----2-5----------3-2-0-3---|
E:-3-------3---------------------------3-------------------------|


G:---------------------------------------------------------------|
D:---------------------------------------------------------------|
A:-5-5-5-3-2-0---------------------------------------------------|
E:---------------------------------------------------------------|

pre chorus
G:---------------------------------------------------------------|
D:---2-3-5---2-3-5-5-3-2-0---------------------------------------|
A:-3-------3----------------2-3-5-3-3-----3-3-----5-5-5-3-2-0----|
E:-------------------------3-----------3-3-----2-3---------------|

chorus
G:---------------------------------------------------------------|
D:---------------------------------------------------------------|
A:---------5-5-5-5-3-3-3-3-5-5-5-5---------5-5-5-5-3-3-3-3-5-5-5-|
E:-3-3-3-3-------------------------3-3-3-3-----------------------|


G:---------------------------------------------------------------|
D:---------------------------------------------------------------|
A:-----------5-5-5-5-3-3-3-3-5-5-5-5-----3-5---------------------|
E:-5-3-3-3-3-------------------------3---------------------------|

post chorus
G:----------------------------------------------------------------|
D:-------2---2---5-------2-----2-5-------2---2-3-5----------------|
A:---2-5---3---5-----2-5---3-3-------2-5---3-------5-3-2-5--------|
E:-3---------------3---------------3-----------------------10/3-3-|

Outro
G:-----------------------------------------------------------------------|
D:-------2-------2-------------------5-5-5-5-5-5-5-5---------------------|
A:---2-5-----2-5---3-3-3-3-3-5-5-5-5-----------------3-3-3-3-3-5-5-5-5---|
E:-3-------3-----------------------------------------------------------3-|





Comments


Popular Operation Ivy tabs & chords
6 To Bass Tabs
Healthy Body 1 Bass Tabs
Hoboken 1 Bass Tabs
Left Behind 1 Bass Tabs
Sarcastic 2 Bass Tabs
Uncertain Bass Tabs
Uncertain 3 Bass Tabs
Gonna Find You Tabs
Junkie's Runnin' Dry Tabs
Knowledge 3 Tabs


Song lyrics



↑ Back to top | Tablatures and chords are parodies/interpretations of the original songs. You may use it for private study, scholarship, research or language learning purposes only
© 2014 AZChords.com Contact us | Privacy policy | DMCA | Add/correct tabs | Request tabs | Top 50 tabs