» » »

Gonna Find You Bass tabs (ver.1)

Artists:  A B C D E F G H I J K L M N O P Q R S T U V W X Y Z # 

Gonna Find You Bass tabs (ver.1)

Operation Ivy
Rating:
0/5 (0 votes)

Tabs too difficult? Try these video lessons and learn fast.
                Gonna Find you


"Back in school you ever get busted for tryin to walk and have
some administrator tell you..."

Intro
G||----------------------|
D||----------------------|
A||--5~~~5~~~5~~~55555555|
E||----------------------|

Chorus
G||------------------|
D||------------------|   x4
A||--55---3345-55-3--|
E||-----11-----------|

Verse
G||---------------------------------------|
D||---------------------------------------|   x4
A||-----------33~3-53--------------3-1----|
E||--33~333~3---------11~111-133-3--------|

Chorus
Verse
Chorus

Bridge Part 1
G||------------------|
D||------------------|  x2
A||--543-345-8875~---|
E||------------------|

Bridge Part 2
G||--------------------|
D||--------------------|  x3
A||-----------33333333-|
E||--33333333----------|

G||-------------|
D||-------------|
A||-----------3-|
E||--33333333---|

(small guitar fill in)

G||--------------------|
D||--------------------|  x4
A||-----------33333333-|
E||--33333333----------|

Chorus
Bridge Part 2


There you go.
            
Tabs too difficult? Try these video lessons and learn fast.


comments powered by Disqus
↑ Back to top | Tablatures and chords are parodies/interpretations of the original songs. You may use it for private study, scholarship, research or language learning purposes only