» » »

Face That Screams Bass tabs (ver.2)

Artists:  A B C D E F G H I J K L M N O P Q R S T U V W X Y Z # 

Face That Screams Bass tabs (ver.2)

Operation Ivy
Rating:
3/5 (1 vote)

Hard to play? Try these video lessons and learn fast.
                Intro/Chorus
|-----------------------------------------------------|
|-----------------------------------5-3-2-0-2---------|
|-55-2-0-------2-3-2-0---55-2-0-----------------------|
|--------3-333--------3---------3-3-------------------|

Verse 3x
|-----------------------|-----------------------------|
|-------2-4-------------|-----------------------------|
|-55555-----22222-00000-|-----------------------------|
|-----------------------|--333333333-5-7--------------|

Bridge(repeat first part a 2 times)

|---64464-----------------0-------|-------------------|
|--------------------00-22--2-0---|-------------------|
|-5-------2-0--22-33------------2-|-5-2-0---5---------|
|-------------3-------------------|-------3-----------|
            
Hard to play? Try these video lessons and learn fast. | Correct




comments powered by Disqus
↑ Back to top | Tablatures and chords are parodies/interpretations of the original songs. You may use it for private study, scholarship, research or language learning purposes only