» » »

Operation Ivy, Caution Bass tabs (ver.2)

Artists:  A B C D E F G H I J K L M N O P Q R S T U V W X Y Z # 

Caution Bass tabs (ver.2)

Operation Ivy Tabs
Rating:
0/5 (0 votes)
Hard to play? Try these video lessons and learn fast.
                i thing is it the right tab conpaired to the other one thats on here but who knows the 
listened to had solo parts so mabye is diff

tuneing is G,D,A,E

|----------------------------------|
|----------------------------------|
|1----------1----------1-----1-----|
|-33-1-33-33-1-333-333---3---------|

|--------------------------|
|-5555-3333----------------|
|-----------5555-3333------|
|--------------------------|

chorus   2X
|-----------------------------------|
|-----------------------------------|
|----0-1-2-3h5-1-0-1-0--------------|
|-1<-------------------3<-3<--------|   play chorus again but don't play the
3< 3< part

            2X
|---------------------------|
|---------------------------|
|-------0-1-2-3-------------|
|-3-R-1---------0-1-2-3-----|  play part before playing the chorus again

|-------------------------------------------|
|-------------------------------------------|
|----1-2-3-1-0-2-0----0-1-2-3-5-------------|
|-3<---------------3<-----------3<-3--------|-    then play the chorus again before solo

                  2X
|-------------------------------------|
|-------------------------------------|
|-1-1------------3-3------------------|
|-----4--1-1-1-1------4--1-1-1-1------|

solo 1:
|----------------------------------------------|
|-55-3-2222-0-2--5-3-0--7-5-0--2-3-------------|
|----------------------------------------------|
|----------------------------------------------|

middle:
|-------------------------|
|-------------55-33-------|
|----0-1-2-33-------------|
|-3<----------------------|

solo 2:
|---------------------------------------------|
|---------------------------------------------|
|-5-55-5-33-22-00-1-0-1-2-33-5-7--------------|
|---------------------------------------------|  play chorus again.
            

comments powered by Disqus
↑ Back to top | Operation Ivy Bass for Caution. Lyrics for acoustic guitar and electric guitar. Tablatures and chords are parodies/interpretations of the original songs. You may use it for private study, scholarship, research or language learning purposes only