>
 >
Caution

Caution Bass Tabs

Operation Ivy - Caution chords, tabs, tablatures, lyrics

Guitar lessons | Add/correct | Request | Top 50 tabs Artists:  A B C D E F G H I J K L M N O P Q R S T U V W X Y Z 0-9

Caution Bass Tabs – Operation Ivy

CD, Sheet music, Poster

Do you like Caution? Share with your friends now
Bass TabsBass Tabs v2ChordsTabsTabs v2Tabs v3Ukulele
Band: Operation Ivy

Intro
G|-----------------------|
D|-----------------------|
A|---1--1--1---1----1----|
E|-33-33-33-333-333--3-3-|

Chorus
"Caution is a word..."
G|---------------------------------------|
D|---------------------------------------|
A|----------33-3-1111--------------------|x2
E|-11111111-----------333-3-33-333-3-33--|

"C A U T I O N..."
G|-----------------|
D|-----------------|
A|------3333-------|
E|-3--------1112---|

Verse
G|----------------------|
D|----------------------|
A|-----------012-3333---|x2
E|-33333333-1-----------|

then
G|------------|
D|------------|
A|------------|
E|-333333333--|

Interlude
G|----------------------|
D|----------------------|
A|-1111------3333-------|x2
E|------1111------1111--|

G|-----------------------------------------33-3-0-30----------------|
D|-55-3-22-3230-5-5-0255-----------------------------30-----------0-|
A|-----------------------------3333-1111----------------31------13--|
E|------------------------1111-----------3-----------------31313----|

Last Chorus
"ya caution, cant understand."
G|-------------------|
D|-------------------|
A|----------33333333-|x3
E|-11111111----------|

end on
E|-3-|





Comments


Popular Operation Ivy tabs & chords
Bombshell 1 Bass Tabs
Hedgecore Bass Tabs
Smiling 3 Bass Tabs
Troublebound Bass Tabs
Caution Chords
Yelling In My Ear Chords
Bad Town Tabs
Big City 1 Tabs
Knowledge From Energy Tabs
The Crowd 1 Tabs


Song lyrics



↑ Back to top | Tablatures and chords are parodies/interpretations of the original songs. You may use it for private study, scholarship, research or language learning purposes only
© 2014 AZChords.com Contact us | Privacy policy | DMCA | Add/correct tabs | Request tabs | Top 50 tabs