» » »

6 To Bass tabs (ver.2)

Artists:  A B C D E F G H I J K L M N O P Q R S T U V W X Y Z # 

6 To Bass tabs (ver.2)

Operation Ivy
Rating:
0/5 (0 votes)

Hard to play? Try these video lessons and learn fast.
                6 TO 10 - Operation Ivy 

intro/verse/during solo 
G|----------------------------------------------------------| 
D|----------------------------------------------------------| 
A|---------4-3----------66666-------------------------------| 
E|--66666-----6-44444---------------------------------------| 

Chorus 
G|-------------999876------|--------------------------------| 
D|----------------------99-|--------------------------------| 
A|---3-4-5-6---------------|-------6-------6----------------| 
E|-4-----------------------|--8-4-----8-4-------------------|
            
Hard to play? Try these video lessons and learn fast. | Correct




comments powered by Disqus
↑ Back to top | Tablatures and chords are parodies/interpretations of the original songs. You may use it for private study, scholarship, research or language learning purposes only