» » »

Open Hand, Tough Girl Tabs (ver.1)

Artists:  A B C D E F G H I J K L M N O P Q R S T U V W X Y Z # 

Tough Girl Tabs (ver.1)

Open Hand Tabs
Rating:
5/5 (1 vote)
Hard to play? Try these video lessons and learn fast.
                Open Hand - Tough Girl
Tuning - Drop D

I'm only doing the 1st Guitar, the 2nd is just too much to do right now.
Sweet ass song.  Really underrated band!!

b=bend
r=release back to original note before the bend.

INTRO/VERSE
Part 1
Guitar 1
e|---------------------------------------------------------------|
B|---------------------------------------------------------------|
G|---------------------------------------------------------------|
D|---------------------------------------------------------------|
A|---------------------------------------------------------------|
D|000-121212-0-15-0-15-17-17br17p15--000-121212-0-15-0-15-17-15b-|

Part 2
Guitar 1
e|----------------------------------------------------------------|
B|----------------------------------------------------------------|
G|----------------------------------------------------------------|
D|----------------------------------------------------------------|
A|----------------------------------------------------------------|
D|000-121212-0-15-0-15-17-17br17p15--000-121212-0-15-0-12-0-15-17-|

Part 3
Guitar 1
e|---------------------------------------------------------------|
B|---------------------------------------------------------------|
G|---------------------------------------------------------------|
D|---------------------------------------------------------------|
A|---------------------------------------------------------------|
D|000-121212-0-15-0-15-17-17br17p15--000-121212-0-15-0-15-17-15b-|

Part 3
Guitar 1               Guitar 2 comes in here - VV
e|----------------------------------------------------------------|
B|----------------------------------------------------------------|
G|----------------------------------------------------------------|
D|------------------------------------------------15---15-0-15----|
A|----------------------------------------------0-15-0-15-0-15----|
D|000-121212-0-15-0-15-17-17br17p15--000-121212-0-15-0-15-0-15<<<<|

CHORUS
Both Guitars - 4x
e|-----------------------|
B|-----------------------|
G|-----------------------|
D|000-000-0h3333s8-88----|
A|000-000-0h3333s8-88----|
D|000-000-0h3333s8-88----|

Post CHORUS/VERSE
Guitar 1 - (good luck figuring out the Guitar 2 lead!!!)
e|---------------------------------------------------------------------|
B|---------------------------------------------------------------------|
G|---------------------------------------------------------------------|
D|---------------------------------------------------------------------|
A|---------------------------------------------------------------------|
D|000-121212-0-15-0-15-17-17br17p15--000-121212-0-15-0-15-17-17br17p15-|

e|-----------------------------------------------------------------|
B|-----------------------------------------------------------------|
G|-----------------------------------------------------------------|
D|-----------------------------------------------------------------|
A|-----------------------------------------------------------------|
D|000-121212-0-15-0-15-17-17br17p15--000-121212-0-15-0-15-0-15-17--|

e|---------------------------------------------------------------|
B|---------------------------------------------------------------|
G|---------------------------------------------------------------|
D|---------------------------------------------------------------|
A|---------------------------------------------------------------|
D|000-121212-0-15-0-15-17-17br17p15--000-121212-0-15-0-15-17-15b-|

e|----------------------------------------------------------------|
B|----------------------------------------------------------------|
G|----------------------------------------------------------------|
D|----------------------------------------------------------------|
A|----------------------------------------------------------------|
D|000-121212-0-15-0-15-17-17br17p15--000-121212-0-15-0-15-0-15-17-|

e|---------------------------------------------------------------|
B|---------------------------------------------------------------|
G|---------------------------------------------------------------|
D|---------------------------------------------------------------|
A|---------------------------------------------------------------|
D|000-121212-0-15-0-15-17-17br17p15--000-121212-0-15-0-15-17-15b-|

e|----------------------------------------------------------------|
B|----------------------------------------------------------------|
G|----------------------------------------------------------------|
D|----------------------------------------------------------------|
A|----------------------------------------------------------------|
D|000-121212-0-15-0-15-17-17br17p15--000-121212-0-15-0-15-0-15-17-|

CHORUS - 2x

BRIDGE
e|----------------------------------------------------------|
B|----------------------------------------------------------|
G|----------------------------------------------------------|
D|-----------15151515-171717-------------15151515-1717br17--|
A|-----------15151515-171717-------------15151515-1717br17--|
D|121212<<<--15151515-171717--121212<<<--15151515-1717br17--|

e|------------------------------------------------------------------|
B|------------------------------------------------------------------|
G|------------------------------------------------------------------|
D|-----------15151515-171717-----------------------15151515-1717<<--|
A|-----------15151515-171717-----------------------15151515-1717<<--|
D|121212<<<--15151515-171717--12121517br171501212--15151515-1717<<--|


POST BRIDGE
Guitar 1
e|--------------------------|
B|--------------------------|
G|--------------------------|
D|--------------------------|
A|--------------------------|
D|12--(16x)--12-(16x)-------|

Guitar 2
e|--------------------------|
B|--------------------------|
G|--------------------------|
D|--------------------------|
A|--------------------------|
D|-----------0-(16x)--------|

Play INTRO - Part 2

Both Guitars
e|-------------------------------------------------|
B|-------------------------------------------------|
G|-------------------------------------------------|
D|000-000-0h3333s8-88--000-121212-15151515-101010--|
A|000-000-0h3333s8-88--000-121212-15151515-101010--|
D|000-000-0h3333s8-88--000-121212-15151515-101010--|

CHORUS - 4x

e|------------------------------------------------------------------|
B|------------------------------------------------------------------|
G|------------------------------------------------------------------|
D|-----------15151515-171717-------------15151515-1717br17----------|
A|-----------15151515-171717-------------15151515-1717br17----------|
D|121212<<<--15151515-171717--121212<<<--15151515-1717br17--121212<<|
            

comments powered by Disqus
↑ Back to top | Open Hand Tabs for Tough Girl. Lyrics for acoustic guitar and electric guitar. Tablatures and chords are parodies/interpretations of the original songs. You may use it for private study, scholarship, research or language learning purposes only