>
 >
Time To Talk

Time To Talk Guitar Tabs

Open Hand - Time To Talk chords, tabs, tablatures, lyrics

Guitar lessons | Add/correct | Request | Top 50 tabs Artists:  A B C D E F G H I J K L M N O P Q R S T U V W X Y Z 0-9

Time To Talk Guitar Tabs – Open Hand

CD, Sheet music, Poster

Do you like Time To Talk? Share with your friends now
TabsTabs v2
Tuning all Guitars : Standard
Song : Time To Talk
Band : Open Hand
Album : Punk Goes Acoustic

0:00
Guitar 1
--------------------------------------------|
---------0----------0----------0----------0-|
-----4----------4----------4----------4-----|
---2---2------2---2------2---2------2---2---|
-4----------4----------0----------0---------|
--------------------------------------------| x 4 then bass
                                                 and guitar 3 join
Guitar 2
-----------------------|
-5---5---5--5---5---5--|
--4---4---4--4---4---4-|
---2---2------2---2----|
-----------------------|
-----------------------| repeat till 0:45

After 4th round of G1, Guitar 3
---7---7---7---7---7---7---7---7-|
--5---5---5---5---5---5---5---5--|
-8---8---8---8---8---8---8---8---|
---------------------------------|
---------------------------------|
---------------------------------| repeat till 0:45

***** 0:45 - Chorus I think

Guitar 1
-------------0-0-0-0-|
-------------0-0-0-0-|
-1--4--2--2--4-4-4-4-|
-2--4--2--2--2-2-2-2-|
-2--2--0--0--0-0-0-0-|
-0-----------0-0-0-0-| x 4

Guitar 2
------------------------|
----------------------9-|
-------9------9---------|
-6--7-----6-7---6--7----|
------------------------|
------------------------|

-------7------7---------|
----------------------9-|
------------------------|
-6--7-----6-7---6--7----|
------------------------|
------------------------| x 2

Finish chorus with
----------------|
----------------|
------9---------|
-6--7---7-6h7p6-|
----------------|
----------------|


Guitar 3
------------------------0---------0-|
------------------------------------|
-1--2--4--1-2-4-----4---------4-----|
-2--2--2--2-2-2---2---2-----2---2---|
-2--0--0--2-0-0-0---------0---------|
-0--------0-------------------------| x 4

***** 1:08

Guitar 2
-------------------------------|
-------------------------------|
----13----14-11----13----14-11-|
-11----11-------11----11-------|
-------------------------------|
-------------------------------| repeat till 1:41

Guitar 3 in time w/Guitar 2
---------------------------------------|
---------------------------------------|
-------6---------6---------6---------6-|
---6-----6---6-----6---6-----6---6-----|
-4---4-----4---4-----0---0-----0---0---|
---------------------------------------| repeat till 1:17

At 1:21 Guitar 1
------------------------------------------|
------------------------------------------|
--------4----------4---------4---------4--|
--6-6--------6-6-------6-6----6--6-6----6-|
-4----4--6--4----4--6-0----0----0----0----|
------------------------------------------| x 4

Guitar 3
-----9---9--9--7-|
---9-------------|
-6---------------|
-----------------|
-----------------|
-----------------|  mess about with this riff till 2:03

At 1:41 Guitar 1
---------------------------------------------------------------|
---------------------------------------------------------------|
-6-6-6-6-6-6-6-6-2-2-2-2-2-2-2-4-4-4-4-4-4-4-4-4-4-4-4-4-4-4-4-|
-6-6-6-6-6-6-6-6-2-2-2-2-2-2-2-4-4-4-4-4-4-4-4-4-4-4-4-4-4-4-4-|
-4-4-4-4-4-4-4-4-0-0-0-0-0-0-0-2-2-2-2-2-2-2-2-2-2-2-2-2-2-2-2-|
---------------------------------------------------------------| x 2

Guitar 2
-------------------------|
-------------------------|
-----4-----4-----4-----4-|
-1h2---1h2---1h2---1h2---|
-------------------------|
-------------------------| repeat till 2:03

Play chorus part again

*****

OUTRO
Guitar 1
-------------------------------------------|
-------------------------------------------|
----------1-1-1-1-1------------------------|
-----2----2-2-2-2-2---------7----7-7-7-7-7-|
-----2----2-2-2-2-2---------7----7-7-7-7-7-|
-0-0-0----0-0-0-0-0-----0-0-5----5-5-5-5-5-| repeat till finish

Guitar 2
-<12>-<12>-<7>-------------------------12-|
------------------12-10-9-9-9h10p9-9-9----|
------------------------------------------|
------------------------------------------|
------------------------------------------|
------------------------------------------| repeat till finish
<>notes are harmonics

Guitar 3 improvises alot i think, but the slid bit goes
--------------------------------------------------------|
--------------------------------------------------------|
-8/9---9/11-11-11-11/13-13-13-13/14-14-14-14/16-16-16-9-|
-x-x---x-x--x--x--x--x--x--x--x--x--x--x--x--x--x--x--x-|
-6/7---7/9--9--9--9--11-11-11-11-12-12-12-12-14-14-14-7-|
--------------------------------------------------------|

Well that's it. I'm not really sure about the big outro they have
but the rest should be ok. :)





Comments


Popular Open Hand tabs & chords
Tough Girl Bass Tabs
11th Street Tabs
Dream Tabs
In Your Eyes Tabs
Life As Is Tabs
Someday Tabs
Time To Talk 1 Tabs
Time To Talk Acoustic Intro Tabs
Tough Girl Tabs


Song lyrics



↑ Back to top | Tablatures and chords are parodies/interpretations of the original songs. You may use it for private study, scholarship, research or language learning purposes only
© 2014 AZChords.com Contact us | Privacy policy | DMCA | Add/correct tabs | Request tabs | Top 50 tabs