>
 >
Someday

Someday Guitar Tabs

Open Hand - Someday chords, tabs, tablatures, lyrics

Guitar lessons | Add/correct | Request | Top 50 tabs Artists:  A B C D E F G H I J K L M N O P Q R S T U V W X Y Z 0-9

Someday Guitar Tabs – Open Hand

CD, Sheet music, Poster

Do you like Someday? Share with your friends now
Tabs



15/* - slide yo finga down neck (starting from 15th fret), but don't
       press all the way down, just do harmonics.
~    - let ring out
h    - hammer on
p    - pull off
2x
2x   - mute after strumming
0x
/ \  - slideage



Guitar 1's Parts

Verse
e|---------------------------------------------------------------------------|
B|---------------------------------------------------------------------------|
G|---------------7-7-7-7-7-7-7-7-7-7-7-7-7-7-7-7--------7-7-7-7-7-7-7-7-7-7-7|
D|-2-2-2-2-2x----7-7-7-7-7-7-7-7-7-7-7-7-7-7-7-7--------7-7-7-7-7-7-7-7-7-7-7|
A|-2-2-2-2-2x----5-5-5-5-5-5-5-5-5-5-5-5-5-5-5-5--------5-5-5-5-5-5-5-5-5-5-5|
E|-0-0-0-0-0x----5-5-5-5-5-5-5-5-5-5-5-5-5-5-5-5--15/*--5-5-5-5-5-5-5-5-5-5-5|

e|-------------------------------------------------------0~------------------|
B|-------------------------------------------------------5~------------------|
G|-7-7-7-7-7-----------------------------7-7-7-7-7-7-7-7-4~------------------|
D|-7-7-7-7-7-2-2--2-2-2--2-2-2--2-2-2--2-7-7-7-7-7-7-7-7---------0h2---------|
A|-5-5-5-5-5-2-2--2-2-2--2-2-2--2-2-2--2-5-5-5-5-5-5-5-5-----0h2-------------|
E|-5-5-5-5-5-0-0--0-0-0--0-0-0--0-0-0--0-5-5-5-5-5-5-5-5---------------------|

e|---------------------------------------------------------------------------|
B|---------------------------------------------------------------------------|
G|---------------7-7-7-7-7-7-7-7-7-7-7-7-7-7-7-7-----------------------------|
D|-2-2-2-2-2x----7-7-7-7-7-7-7-7-7-7-7-7-7-7-7-7-----------------------------|
A|-2-2-2-2-2x----5-5-5-5-5-5-5-5-5-5-5-5-5-5-5-5-----------------------------|
E|-0-0-0-0-0x----5-5-5-5-5-5-5-5-5-5-5-5-5-5-5-5-----------------------------|


Chorus (2x)
e|---------------------------------------------------------------------------|
B|---------------------------------------------------------------------------|
G|-----------------------------------------------------------------5--5--5-5-|
D|-2-2-2-2-2-2-2-2-2-2-2-2-2-2-2-2-5-5-5-5-5-5-5-5-5-5-5-5-5-5-5-5-5--5--5-5-|
A|-2-2-2-2-2-2-2-2-2-2-2-2-2-2-2-2-5-5-5-5-5-5-5-5-5-5-5-5-5-5-5-5-3--3--3-3-|
E|-0-0-0-0-0-0-0-0-0-0-0-0-0-0-0-0-3-3-3-3-3-3-3-3-3-3-3-3-3-3-3-3-3--3--3-3-|

e|---------------------------------------------------------------------------|
B|---------------------------------------------------------------------------|
G|-5--5-5--5--5-5--5--5-5----------------------------------------------------|
D|-5--5-5--5--5-5--5--5-5----------------------------------------------------|
A|-3--3-3--3--3-3--3--3-3----------------------------------------------------|
E|-3--3-3--3--3-3--3--3-3----------------------------------------------------|


Interlude (2x)
e|---------------------------------------------------------------------------|
B|---------------------------------------------------------------------------|
G|---------------------------------------------------------------------------|
D|-----2---0h2-----2---0h2-----0h2-----2---0h2-----2---0h2-----0h2-----------|
A|---------------------------------3-3---3-----3-3---3-----3-3---------5-----|
E|-0-0---0-----0-0---0-----0-0-------------------------------------3-3---3---|
   ...   .     ...   .     ...     ...   .     ...   .     ...     ...   .

e|---------------------------------------------------------------------------|
B|---------------------------------------------------------------------------|
G|---------------------------------------------------------------------------|
D|-----------------------------------------5-5-5-7-7-7-4-4-------------------|
A|-3p2-----5-----3-----2p0-----0---0-0---------------------------------------|
E|-----3-3---3-3---3-3-----2-2---2-----2-2-----------------------------------|
       ...   ...   ...     ...   .     ...


Repeat Verse

Repeat Chorus (2x)

Slow Part
e|---------------------------------------------------------------------------|
B|---------------------------------------------------------------------------|
G|------------------------9-9-9-9-9-9-9-9-9-9-9-9---------9-9-9-9-11-11-11-11|
D|-2~-------------9-9-9-9-------------------------9-9-9-9--------------------|
A|-2~------------------------------------------------------------------------|
E|-0~------------------------------------------------------------------------|
                  pm.........................................................

e|---------------------------------------------------------------------------|
B|------------------------------------------------------------10-10-10-8-8-8-|
G|12-12-12-12-7-7-7-7-7-7-7-7-7-7-7-7-7-7-7-7--------------------------------|
D|--------------------------------------------9-9-9-9-9-9-9-9----------------|
A|---------------------------------------------------------------------------|
E|---------------------------------------------------------------------------|
  ...........................................................................

e|---------------------------------------------------------------------------|
B|7-7------------------------------------------------------------------------|
G|------------9-9-9-9-9-9-9-9-9-9-9-9---------9-9-9-9-11-11-11-11-12-12-12-12|
D|----9-9-9-9-------------------------9-9-9-9--------------------------------|
A|---------------------------------------------------------------------------|
E|---------------------------------------------------------------------------|
  ...........................................................................

e|---------------------------------------------------------------------------|
B|-------------------------------------------------10-10-10-8-8-8-7-7--------|
G|-7-7-7-7-7-7-7-7-7-7-7-7-7-7-7-7-------------------------------------------|
D|---------------------------------9-9-9-9-9-9-9-9---------------------------|
A|---------------------------------------------------------------------------|
E|---------------------------------------------------------------------------|
   ...............................

Bridge
e|---------------------------------------------------------------------------|
B|-------7-8-7-------7-8-7h8p7---------7-8-7-------7-8-7h8p7---------7-8-7---|
G|-----9-----------9-----------7-----9-----------9-----------7-----9---------|
D|---9-----------9-----------------7-----------7-----------------9-----------|
A|-7-----------7-----------------5-----------5-----------------7-------------|
E|---------------------------------------------------------------------------|

e|---------------------------------------------------------------------------|
B|-------7-8-8/10-------7-8-7-------7-8-7h8p7--------------------------------|
G|-----9--------------9-----------9-----------7------------------------------|
D|---9--------------7-----------7--------------------------------------------|
A|-7--------------5-----------5----------------------------------------------|
E|---------------------------------------------------------------------------|

Guitar 2 Does little clean thing

Repeat Chorus (2x)

Outro (2x, on 2nd time, don't do slide)
e|---------------------------------------------------------------------------|
B|---------------------------------------------------------------------------|
G|-----------9-7--9-7--9-7-------9-7--9-7--9-7-------9-7--9-7--9-7-------7/9-|
D|-------9-------------------9-------------------9-------------------9-------|
A|-----7---7---------------7---7---------------7---7---------------7---7-----|
E|-12\-----------------------------------------------------------------------|
                  after last time, do this
e|--------------|------------------------------------------------------------|
B|--------------|------------------------------------------------------------|
G|-9-9-9/11-----|-----------------7-9-9/11-----------------------------------|
D|--------------|----9--------7-9--------------------------------------------|
A|--------------|--7---7--7-9------------------------------------------------|
E|--------------|------------------------------------------------------------|
                          .......
Outro cont'd (2x)
e|---------------------------------------------------------------------------|
B|---------------------------------------------------------------------------|
G|---------------------------------------------------------------------------|
D|-----2---0h2-----2---0h2-----4h5-----2---0h2-----2---0h2-----4h5-----------|
A|---------------------------------3-3---3-----3-3---3-----3-3---------5-----|
E|-0-0---0-----0-0---0-----0-0-------------------------------------3-3---3---|
   ...   .     ...   .     ...     ...   .     ...   .     ...     ...   .

e|---------------------------------------------------------------------------|
B|---------------------------------------------------------------------------|
G|---------------------------------------------------------------------------|
D|-----------------------------------------5-5-5-7-7-7-4-4-------------------|
A|-3p2-----5-----3-----2p0-----0---0-0---------------------------------------|
E|-----3-3---3-3---3-3-----2-2---2-----2-2-----------------------------------|
       ...   ...   ...     ...   .     ...
Outro cont'd
e|---------------------------------------------------------------------------|
B|---------------------------------------------------------------------------|
G|-9-9-9-9-9-9-9-9-9-9-9-9-7-7-7-7-9-9-9-9-9-9-9-9-9-9-9-9-12-12-11-11-7-7-7-|
D|-x-x-x-x-x-x-x-x-x-x-x-x-x-x-x-x-x-x-x-x-x-x-x-x-x-x-x-x--x--x--x--x-x-x-x-|
A|-7-7-7-7-7-7-7-7-7-7-7-7-5-5-5-5-7-7-7-7-7-7-7-7-7-7-7-7-10-10--9--9-5-5-5-|
E|---------------------------------------------------------------------------|

e|---------------------------------------------------------------------------|
B|---------------------------------------------------------------------------|
G|-7-7-7-7-7-7-7-7-7-7-7-7-7-14-14-14-14-14-14-14-14-14----------------------|
D|-x-x-x-x-x-x-x-x-x-x-x-x-x--x--x--x--x--x--x--x--x--x-2x-2x-2x-2x-2x-------|
A|-5-5-5-5-5-5-5-5-5-5-5-5-5-12-12-12-12-12-12-12-12-12-2x-2x-2x-2x-2x-------|
E|------------------------------------------------------0x-0x-0x-0x-0x-------|



Guitar 2's Parts
-----------------
Verse:  (Play same as guitar 1)

Chorus:  (Play same as guitar 1)

Interlude:
e|---------------------------------------------------------------------------|
B|---------------------------------------------------------------------------|
G|---------------------------------------------------------------------------|
D|-----2---0h2-----2---0h2-----0h2-----2---0h2-----2---0h2-----0h2-----------|
A|---------------------------------3-3---3-----3-3---3-----3-3---------5-----|
E|-0-0---0-----0-0---0-----0-0-------------------------------------3-3---3---|
   ...   .     ...   .     ...     ...   .     ...   .     ...     ...   .

Interlude Cont'd:
e|---------------------------------------------------------------------------|
B|---------------------------------------------------------------------------|
G|---------------------------------------------------------------------------|
D|-----------------------------------------5-5-5-7-7-7-4-4-------------------|
A|-3p2-----5-----3-----2p0-----0---0-0---------------------------------------|
E|-----3-3---3-3---3-3-----2-2---2-----2-2-----------------------------------|

Interlude Cont'd:
e|---------------------------------------------------------------------------|
B|---------------------------------------------------------------------------|
G|---------------------------------------------------------------------------|
D|-----5---4h5-----5---4h5-----4h5-----5---4h5-----5---4h5-----4h5-----------|
A|---------------------------------3-3---3-----3-3---3-----3-3---------5-----|
E|-0-0---0-----0-0---0-----0-0-------------------------------------3-3---3---|
   ...   .     ...   .     ...     ...   .     ...   .     ...     ...   .

Interlude Cont'd:
e|---------------------------------------------------------------------------|
B|---------------------------------------------------------------------------|
G|---------------------------------------------------------------------------|
D|-----------------------------------------5-5-5-7-7-7-4-4-------------------|
A|-3p2-----5-----3-----2p0-----0---0-0---------------------------------------|
E|-----3-3---3-3---3-3-----2-2---2-----2-2-----------------------------------|
       ...   ...   ...     ...   .     ...

Repeat Verse

Repeat Chorus

Slow Part:
e|---------------------------------------------------------------------------|
B|8-8-8-8-8-8-------------------------------------7-7-7-7-8-8-8-8------------|
G|------------9-9-9-9-9-9-9-9-9-9---------9-9-9-9-----------------7-7-7-7-7-7|
D|--------------------------------9-9-9-9------------------------------------|
A|---------------------------------------------------------------------------|
E|---------------------------------------------------------------------------|
  ...........................................................................

Slow Part Cont'd:
e|---------------------------------------------------------------------------|
B|------------------------------------10-10-10-8-8-8-7-7---------------------|
G|7-7-7-7-7-7-7-7-7-7--------------------------------------------------------|
D|--------------------9-9-9-9-9-9-9-9----------------------------------------|
A|---------------------------------------------------------------------------|
E|---------------------------------------------------------------------------|
  ......................................................

Slow Part Cont'd:  (3x)            (4th time)
e|--------------------------------|------------------------------------------|
B|--------7-----7-----7-------7h8-|----------------7-----8-----7-------------|
G|--------------------------------|------------------------------------------|
D|9-9-9-9---9-9---9-9---9-9-9-----|9-9-9-9-9-9-9-9---9-9---9-9---------------|
A|--------------------------------|------------------------------------------|
E|--------------------------------|------------------------------------------|
  .......   ...   ...   .....      .......           ...   ...

Slow Part Cont'd:  (3x)            (4th time)
e|--------------------------------|------------------------------------------|
B|7h8p0-----------7-----7-----7h8-|-8-7---8-7-7-8-7-7-8-7-7-8-8-8-8----------|
G|--------------------------------|-----7-------------------7-7-7-7----------|
D|------9-9-9-9-9---9-9---9-9-----|------------------------------------------|
A|--------------------------------|------------------------------------------|
E|--------------------------------|------------------------------------------|

Bridge:  (Play same thing as Guitar 1)

Clean Part:  (2x)
e|---------------------------------------------------------------------------|
B|8-----7-----8-----7-----8---7----------------------------------------------|
G|--9-9---9-9---9-9---9-9---9---9--------------------------------------------|
D|---------------------------------------------------------------------------|
A|---------------------------------------------------------------------------|
E|---------------------------------------------------------------------------|

Repeat Chorus (2x)

Outro:
Outro (2x, on 2nd time, don't do slide)
e|---------------------------------------------------------------------------|
B|-----------------------------------------------------------------------7h8-|
G|-----------9-7--9-7--9-7-------9-7--9-7--9-7-------9-7--9-7--9-7-----------|
D|-------9-------------------9-------------------9-------------------9-------|
A|-----7---7---------------7---7---------------7---7---------------7---7-----|
E|-12\-----------------------------------------------------------------------|
                  after last time, do this
e|--------------|------------------------------------------------------------|
B|8-8-8/10------|------------------------------------------------------------|
G|--------------|-----------------7-9-9/11-----------------------------------|
D|--------------|----9--------7-9--------------------------------------------|
A|--------------|--7---7--7-9------------------------------------------------|
E|--------------|------------------------------------------------------------|
                          .......

Outro Cont'd:
e|---------------------------------------------------------------------------|
B|---------------------------------------------------------------------------|
G|---------------------------------------------------------------------------|
D|-----2---0h2-----2---0h2-----4h5-----2---0h2-----2---0h2-----4h5-----------|
A|---------------------------------3-3---3-----3-3---3-----3-3---------5-----|
E|-0-0---0-----0-0---0-----0-0-------------------------------------3-3---3---|
   ...   .     ...   .     ...     ...   .     ...   .     ...     ...   .

e|---------------------------------------------------------------------------|
B|---------------------------------------------------------------------------|
G|---------------------------------------------------------------------------|
D|-----------------------------------------5-5-5-7-7-7-4-4-------------------|
A|-3p2-----5-----3-----2p0-----0---0-0---------------------------------------|
E|-----3-3---3-3---3-3-----2-2---2-----2-2-----------------------------------|
       ...   ...   ...     ...   .     ...

Outro Cont'd:
e|---------------------------------------------------------------------------|
B|---------------------------------------------------------------------------|
G|-----------------------------2h4-----------------------------2h4-----------|
D|-----5---4h5-----5---4h5-------------5---4h5-----5---4h5-------------------|
A|---------------------------------3-3---3-----3-3---3-----3-3---------5-----|
E|-0-0---0-----0-0---0-----0-0-------------------------------------3-3---3---|
   ...   .     ...   .     ...     ...   .     ...   .     ...     ...   .

Outro Cont'd:
e|---------------------------------------------------------------------------|
B|---------------------------------------------------------------------------|
G|---------------------------------------------------------------------------|
D|-----------------------------------------5-5-5-7-7-7-4-4-------------------|
A|-3p2-----5-----3-----2p0-----0---0-0---------------------------------------|
E|-----3-3---3-3---3-3-----2-2---2-----2-2-----------------------------------|
       ...   ...   ...     ...   .     ...

Outro Cont'd:
e|---------------------------------------------------------------------------|
B|---------------------------------------------------------------------------|
G|-----------------------------2h4-----------------------------2h4-----------|
D|-----5---4h5-----5---4h5-------------5---4h5-----5---4h5-------------------|
A|---------------------------------3-3---3-----3-3---3-----3-3---------5-----|
E|-0-0---0-----0-0---0-----0-0-------------------------------------3-3---3---|
   ...   .     ...   .     ...     ...   .     ...   .     ...     ...   .

Outro Cont'd:
e|---------------------------------------------------------------------------|
B|---------------------------------------------------------------------------|
G|---------------------------------------------------------------------------|
D|-----------------------------------------2x-2x-2x-2x-2x--------------------|
A|-3p2-----5-----3-----2p0-----0---0-0-----2x-2x-2x-2x-2x--------------------|
E|-----3-3---3-3---3-3-----2-2---2-----2-2-0x-0x-0x-0x-0x--------------------|
       ...   ...   ...     ...   .     ...

Open Hand is freaking tight.  This new song rocks!  





Comments


Popular Open Hand tabs & chords
Tough Girl Bass Tabs
11th Street Tabs
Dream Tabs
In Your Eyes Tabs
Life As Is Tabs
Time To Talk Tabs
Time To Talk 1 Tabs
Time To Talk Acoustic Intro Tabs
Tough Girl Tabs


Song lyrics



↑ Back to top | Tablatures and chords are parodies/interpretations of the original songs. You may use it for private study, scholarship, research or language learning purposes only
© 2014 AZChords.com Contact us | Privacy policy | DMCA | Add/correct tabs | Request tabs | Top 50 tabs