>
 >
In Your Eyes

In Your Eyes Guitar Tabs

Open Hand - In Your Eyes chords, tabs, tablatures, lyrics

Guitar lessons | Add/correct | Request | Top 50 tabs Artists:  A B C D E F G H I J K L M N O P Q R S T U V W X Y Z 0-9

In Your Eyes Guitar Tabs – Open Hand

CD, Sheet music, Poster

Do you like In Your Eyes? Share with your friends now
Tabs


^ - bend
~ - let ring out
/ \ - slide
x
x - scratching
x
2x
2x - mute after strumming
0x

GUITAR 1'S PARTS:
-----------------
Intro:  (Play up until singing starts)
e|---------------------------------------------------------------------------|
B|---------------------------------------------------------------------------|
G|9-9-9-9---------9-9-9-9---------9-9-9-9---------9-9-9-9-9/10-10-10---------|
D|x-x-x-x---------x-x-x-x---------x-x-x-x---------x-x-x-x-x--x--x--x---------|
A|7-7-7-7---------7-7-7-7---------7-7-7-7---------7-7-7-7-7/-8--8--8---------|
E|--------0-0-0-0---------0-0-0-0---------0-0-0-0----------------------------|

Verse:  (Repeat Intro 4x)

Next Part:  (2x)
e|---------------------------------------------------------------------------|
B|----------------------------5^-----------5^--------------------------------|
G|7-7-7-7-7-5-5-5-5-5-5------------------------------------------------------|
D|7-7-7-7-7-5-5-5-5-5-5-----2----2-2-2-2-2----2-2-2-2------------------------|
A|5-5-5-5-5-3-3-3-3-3-3-----2----2-2-2-2-2----2-2-2-2------------------------|
E|5-5-5-5-5-3-3-3-3-3-3-12/-0----0-0-0-0-0----0-0-0-0------------------------|
                            .            .

2nd Verse:  (Repeat Verse)

Pre Chorus:  (4x)
e|---------------------------------------------------------------------------|
B|---------------------------------------------------------------------------|
G|---------------------------------------------------------------------------|
D|2-x-x-2-x-x-2-2------------------------------------------------------------|
A|2-x-x-2-x-x-2-2------------------------------------------------------------|
E|0-x-x-0-x-x-0-0------------------------------------------------------------|

Chorus:  "In your eyes, in your eyes..."   (2x) 
e|------------------------7--------------------------------------------------|
B|7-----7-----7-----7---7---7------------------------------------------------|
G|--7~----7~----7~----7------------------------------------------------------|
D|---------------------------------------------------------------------------|
A|---all-harmonics-----------------------------------------------------------|
E|---------------------------------------------------------------------------|

Interlude:  (12x)
e|---------------------------------------------------------------------------|
B|------------7--------------------------------------------------------------|
G|---------------------------------------------------------------------------|
D|--------9------------------------------------------------------------------|
A|14\--5-7---7---7-----------------------------------------------------------|
E|---------------------------------------------------------------------------|

Outro:  (4x)
e|---------------------------------------------------------------------------|
B|---------------------------------------------------------------------------|
G|---------------------------------------------------------------------------|
D|2--2-2x--------------------------------------------------------------------|
A|2--2-2x--------------------------------------------------------------------|
E|0--0-0x--------------------------------------------------------------------|


GUITAR 2'S PARTS:
-----------------
Intro:  (2x)
e|---------------------------------------------------------------------------|
B|---------------------------------------------------------------------------|
G|7/9------------------------------------------------------------------------|
D|7/9------------------------------------------------------------------------|
A|5/7------------------------------------------------------------------------|
E|5/7------------------------------------------------------------------------|

Intro Cont'd:  (2x)
e|---------------------------------------------------------------------------|
B|---------------------------------------------------------------------------|
G|9-9-9-9---------9-9-9-9---------9-9-9-9---------9x-------------------------|
D|x-x-x-x---------x-x-x-x---------x-x-x-x---------x--------------------------|
A|7-7-7-7---------7-7-7-7---------7-7-7-7---------7x-------------------------|
E|--------0-0-0-0---------0-0-0-0---------0-0-0-0----------------------------|

Intro Cont'd:
e|---------------------------------------------------------------------------|
B|---------------------------------------------------------------------------|
G|9-9-9-9---------9-9-9-9---------9-9-9-9---------9-9-9-9-9/10-10-10---------|
D|x-x-x-x---------x-x-x-x---------x-x-x-x---------x-x-x-x-x--x--x--x---------|
A|7-7-7-7---------7-7-7-7---------7-7-7-7---------7-7-7-7-7/-8--8--8---------|
E|--------0-0-0-0---------0-0-0-0---------0-0-0-0----------------------------|

Verse:  (4x)
e|---------------------------------------------------------------------------|
B|---------------------------------------------------------------------------|
G|7/9------------------------------------------------------------------------|
D|7/9------------------------------------------------------------------------|
A|5/7------------------------------------------------------------------------|
E|5/7------------------------------------------------------------------------|

Next Part:  (2x)
e|---------------------------------------------------------------------------|
B|----------------------------5^-----------5^--------------------------------|
G|7-7-7-7-7-5-5-5-5-5-5--*---------------------------------------------------|
D|7-7-7-7-7-5-5-5-5-5-5--5--2----2-2-2-2-2----2-2-2-2------------------------|
A|5-5-5-5-5-3-3-3-3-3-3-----2----2-2-2-2-2----2-2-2-2------------------------|
E|5-5-5-5-5-3-3-3-3-3-3-----0----0-0-0-0-0----0-0-0-0-12\--------------------|
                            .            .

2nd Verse:  (2x)
e|---------------------------------------------------------------------------|
B|---------------------------------------------------------------------------|
G|9-9-9-9---------9-9-9-9---------9-9-9-9---------9-9-9-9-9/10-10-10---------|
D|x-x-x-x---------x-x-x-x---------x-x-x-x---------x-x-x-x-x--x--x--x---------|
A|7-7-7-7---------7-7-7-7---------7-7-7-7---------7-7-7-7-7/-8--8--8---------|
E|--------0-0-0-0---------0-0-0-0---------0-0-0-0----------------------------|

Pre Chorus:  (4x)
e|---------------------------------------------------------------------------|
B|---------------------------------------------------------------------------|
G|---------------------------------------------------------------------------|
D|2-x-x-2-x-x-2-2------------------------------------------------------------|
A|2-x-x-2-x-x-2-2------------------------------------------------------------|
E|0-x-x-0-x-x-0-0------------------------------------------------------------|

Chorus:
e|---------------------------------------------------------------------------|
B|---------------------------------------------------------------------------|
G|9-9-9-9-9/11-7-7-7-7-7-7-7-7-7-7-7-7-7-7-7-7-7-7---------------------------|
D|x-x-x-x-x--x-x-x-x-x-x-x-x-x-x-x-x-x-x-x-x-x-x-x---------------------------|
A|7-7-7-7-7/-9-5-5-5-5-5-5-5-5-5-5-5-5-5-5-5-5-5-5---------------------------|
E|---------------------------------------------------------------------------|

Chorus Cont'd:
e|---------------------------------------------------------------------------|
B|---------------------------------------------------------------------------|
G|-9-9-9-9-9/11-7-7-7-7-12-11-7-7-7-7-12-11-7-7-7-7-7------------------------|
D|-x-x-x-x-x--x-x-x-x-x--x--x-x-x-x-x--x--x-x-x-x-x-x------------------------|
A|-7-7-7-7-7/-9-5-5-5-5-10--9-5-5-5-5-10--9-5-5-5-5-5------------------------|
E|---------------------------------------------------------------------------|

Interlude:  (12x)
e|---------------------------------------------------------------------------|
B|------------7--------------------------------------------------------------|
G|---------------------------------------------------------------------------|
D|--------9------------------------------------------------------------------|
A|14\--5-7---7---7-----------------------------------------------------------|
E|---------------------------------------------------------------------------|

Repeat Pre Chorus

Outro:  (4x)
e|---------------------------------------------------------------------------|
B|---------------------------------------------------------------------------|
G|---------------------------------------------------------------------------|
D|2--2-2x--------------------------------------------------------------------|
A|2--2-2x--------------------------------------------------------------------|
E|0--0-0x--------------------------------------------------------------------|





Comments


Popular Open Hand tabs & chords
Tough Girl Bass Tabs
11th Street Tabs
Dream Tabs
Life As Is Tabs
Someday Tabs
Time To Talk Tabs
Time To Talk 1 Tabs
Time To Talk Acoustic Intro Tabs
Tough Girl Tabs


Song lyrics



↑ Back to top | Tablatures and chords are parodies/interpretations of the original songs. You may use it for private study, scholarship, research or language learning purposes only
© 2014 AZChords.com Contact us | Privacy policy | DMCA | Add/correct tabs | Request tabs | Top 50 tabs