>
 >
11th Street

11th Street Guitar Tabs

Open Hand - 11th Street chords, tabs, tablatures, lyrics

Guitar lessons | Add/correct | Request | Top 50 tabs Artists:  A B C D E F G H I J K L M N O P Q R S T U V W X Y Z 0-9

11th Street Guitar Tabs – Open Hand

CD, Sheet music, Poster

Do you like 11th Street? Share with your friends now
Tabs
Open Hand- 11th street
Standard tuning
EBGDAE

Intro/Verse:
Gtr.1
E|----------------------------------------------------| \
B|----------------------------------------------------|  \
G|-7-8-10-7-8-10-7-8-10-7-8-10-7-8-10-777777777777777-|   \
D|------------------------------------888888888888888-|    \
A|----------------------------------------------------|     |
E|----------------------------------------------------|     |
                                                            |   
Gtr.2                                                       | x4
E|----------------------------------------------------|     |
B|-----6------6------6------6------6------------------|     |
G|-7-7----7-7----7-7----7-7----7-7--------------------|    /
D|------------------------------------888888888888888-|   /
A|------------------------------------888888888888888-|  /
E|----------------------------------------------------| /


Chorus:
Gtr.1
E|--------------------------------|
B|-----11-----11------------------|
G|-7-8----7-8---------------------|
D|---------------8888888888888888-| x2
A|---------------8888888888888888-|
E|---------------6666666666666666-|
pm               ................   <- palm mute on second time only

Gtr.2
E|--------------------------------|
B|-----11-----11--7~--------------|
G|-7-8----7-8---------------------|
D|--------------------------------| x2
A|--------------------------------|
E|--------------------------------|


Chorus part 2:
Gtr.1
E|--------------------------------------------------| \
B|--------------------------------------------------|  \
G|-7-8-10-7-8-10-7-8-10-7-8-10-7-8-10---------------|   \
D|------------------------------------8888888888888-|    \
A|------------------------------------8888888888888-|     |
E|------------------------------------6666666666666-|     |
PM                                    .............       |
                                                          | X4
Gtr.2                                                     |
E|--------------------------------------------------|     |
B|--------------------------------------------------|     |
G|-----10-----10-----10-----10-----10---------------|    /
D|-8-8----8-8----8-8----8-8----8-8----8888888888888-|   /
A|------------------------------------8888888888888-|  /
E|------------------------------------6666666666666-| /

Verse:
Gtr.1 and Gtr.2  <-- both play identical parts in this section i believe
E|------------------------------------------------------|
B|------------------------------------------------------|
G|-7-8-7-------7-8-7----------7-8-7--7-7-xx-7-8-7-8-----|
D|-------88-xx-------10-10-xx--------7-7-xx-------8-x12-|
A|-------88-xx-------10-10-xx--------5-5-xx-------6-----|
E|-------66-xx--------8--8-xx---------------------------|

*parts then differ after the above is played*
Gtr.1
E|------------------------------------------------|
B|-------11---------------------------------------|
G|----------7-8----------7-8-7-7-7-xx-7-8-7-8-----|
D|-88-xx--------10-10-xx-------7-7-xx-------8-x12-|
A|-88-xx--------10-10-xx-------5-5-xx-------6-----|
E|-66-xx---------8--8-xx--------------------------|

Gtr.2
E|----------------------------------------------------|
B|-------11--------------11---------------------------|
G|----------7-8-------------7-8----------7-8-7--------|
D|-88-xx--------10-10-xx--------12-12-xx-------13-----|
A|-88-xx--------10-10-xx--------12-12-xx-------13-x12-|
E|-66-xx---------8--8-xx--------10-10-xx-------11-----|

Breakdizzle
Gtr.1 & Gtr,2
E|-----10~^/-|
B|-----------|
G|-7-8-------|
D|-----------|
A|-----------|
E|-----------|

Breakdown prt.2

Gtr.1
E|-----------------------------------------------------| 
B|-----------------------------------------------------| 
G|-----10-----10-----10-----10-----10------------------|  
D|-8-8----8-8----8-8----8-8----8-8-----888888888888888-|    
A|-------------------------------------888888888888888-|     
E|-----------------------------------------------------|     
                                                             
Gtr.2                                                        
E|----------------------------------------------------|      
B|----------------------------------------------------|      
G|-7-8-10-7-8-10-7-8-10-7-8-10-7-8-10-777777777777777-|     
D|------------------------------------888888888888888-|     
A|----------------------------------------------------|   
E|----------------------------------------------------|  


Verse:
Gtr.1
E|---------------------------------------------------|
B|-------------------11-----10-----11----------------|
G|-----10-----10-------------------------------------|
D|-8-8----8-8----8-8----8-8----8-8----88888888888888-|
A|------------------------------------88888888888888-|
E|------------------------------------66666666666666-|
PM                                    ..............

Gtr.2
E|---------------------------------------------------|
B|-------------------11-----10-----11----------------|
G|-7-8-10-7-8-10-7-8----7-8----7-8-------------------|
D|------------------------------------88888888888888-|
A|------------------------------------88888888888888-|
E|------------------------------------66666666666666-|
PM                                    ..............

Chorus part 2:
Gtr.1
E|--------------------------------------------------| \
B|--------------------------------------------------|  \
G|-7-8-10-7-8-10-7-8-10-7-8-10-7-8-10---------------|   \
D|------------------------------------8888888888888-|    \
A|------------------------------------8888888888888-|     |
E|------------------------------------6666666666666-|     |
PM                                    .............       |
                                                          | X4
Gtr.2                                                     |
E|--------------------------------------------------|     |
B|--------------------------------------------------|     |
G|-----10-----10-----10-----10-----10---------------|    /
D|-8-8----8-8----8-8----8-8----8-8----8888888888888-|   /
A|------------------------------------8888888888888-|  /
E|------------------------------------6666666666666-| /

Verse:
Gtr.1 and Gtr.2  <-- both play identical parts in this section i believe
E|------------------------------------------------------|
B|------------------------------------------------------|
G|-7-8-7-------7-8-7----------7-8-7--7-7-xx-7-8-7-8-----|
D|-------88-xx-------10-10-xx--------7-7-xx-------8-x12-|
A|-------88-xx-------10-10-xx--------5-5-xx-------6-----|
E|-------66-xx--------8--8-xx---------------------------|

*parts then differ after the above is played*
Gtr.1
E|------------------------------------------------|
B|-------11---------------------------------------|
G|----------7-8----------7-8-7-7-7-xx-7-8-7-8-----|
D|-88-xx--------10-10-xx-------7-7-xx-------8-x12-|
A|-88-xx--------10-10-xx-------5-5-xx-------6-----|
E|-66-xx---------8--8-xx--------------------------|

Gtr.2
E|----------------------------------------------------|
B|-------11--------------11---------------------------|
G|----------7-8-------------7-8----------7-8-7--------|
D|-88-xx--------10-10-xx--------12-12-xx-------13-----|
A|-88-xx--------10-10-xx--------12-12-xx-------13-x12-|
E|-66-xx---------8--8-xx--------10-10-xx-------11-----|

Verse part 2.
Gtr.1 & Gtr.2
E|-------------------------------------------------------------------|
B|-------------------------------------------------------------------|
G|---------------10-7-------------------------10-7-------------------| x2
D|-8888888---8--------10-10-10-10-10-10---8--------12-12-12-12-12-12-|
A|-8888888-8---8------10-10-10-10-10-10-8---8------12-12-12-12-12-12-|
E|-6666666-------------8--8--8--8--8--8------------10-10-10-10-10-10-|
PM         .   .                        .   .  

E|-----------------------------|
B|-----------------------------|
G|-----------------------------| x2
D|----7---8---7-13----8-7-8-7--|
A|--------------10-x8--------8-|
E|--6---6---6---10-------------|
Pm  .   .   .   

RIFF:
Gtr.1 & Gtr,2
E|-----10~^/-|
B|-----------|
G|-7-8-------|
D|-----------|
A|-----------|
E|-----------|

BREAKDOWN:
Gtr.1
E|-10--------------------|
B|----11-----------------|
G|-------10-7-8-10-14-15-|
D|-----------------------| x a bunch
A|-----------------------|
E|-----------------------|

Gtr.2
E|----------------------------------------|
B|----------------------------------------|
G|----------------------------------------|
D|----------------------------------------| x4
A|-88888888-888888888-5555555555555555555-|
E|-66666666-555555555-3333333333333333333-|
PM ........ ......... ...................


Gtr.1
E|------------------|
B|-10-11---11-10-11-|
G|-------10---------|
D|------------------|
A|------------------|
E|------------------|

Gtr.2
E|----------------------------------------|
B|----------------------------------------|
G|----------------------------------------|
D|----------------------------------------| x4
A|-88888888-888888888-5555555555555555555-|
E|-66666666-555555555-3333333333333333333-|
Pm                    ................... <-- palm muting begins on 4th time

OUtro:
Gtr.1 & Gtr.2 play same parts for ending.
E|----------------------------------------|
B|----------------------------------------|
G|----------------------------------------|
D|-88888888-888888888-5555555555555555555-| x3
A|-88888888-888888888-5555555555555555555-|
E|-66666666-555555555-3333333333333333333-|

E|--------------------|
B|--------------------|
G|--------------------|
D|-88888888-888888888-| 
A|-88888888-888888888-|
E|-66666666-555555555-|

E|-----10~^/-|
B|-----------|
G|-7-8-------|
D|-----------|
A|-----------|
E|-----------|





Comments


Popular Open Hand tabs & chords
Tough Girl Bass Tabs
Dream Tabs
In Your Eyes Tabs
Life As Is Tabs
Someday Tabs
Time To Talk Tabs
Time To Talk 1 Tabs
Time To Talk Acoustic Intro Tabs
Tough Girl Tabs


Song lyrics



↑ Back to top | Tablatures and chords are parodies/interpretations of the original songs. You may use it for private study, scholarship, research or language learning purposes only
© 2014 AZChords.com Contact us | Privacy policy | DMCA | Add/correct tabs | Request tabs | Top 50 tabs