>
 >
Then Your A Punk

Then Your A Punk Guitar Tabs

Oopunk - Then Your A Punk chords, tabs, tablatures, lyrics

Guitar lessons | Add/correct | Request | Top 50 tabs Artists:  A B C D E F G H I J K L M N O P Q R S T U V W X Y Z 0-9

Then Your A Punk Guitar Tabs – Oopunk

CD, Sheet music, Poster

Do you like Then Your A Punk? Share with your friends now
Tabs
Intro
e
B
G
D      3     3     3    3          4     4     4     4         3     3     3     3          7     7     7     7
A    x     x     x    x    x     x     x     x     x    x    x     x     x     x    x     x     x     x     x    x
E  1     1     1     1         2     2     2     2         1     1     1     1          5     5     5     5

e
B
G
D      4     4     4     4         3     3     3     3       33333333
A    x     x     x     x    x    x     x     x     x    x    xxxxxxxx   pick scrape--------
E  2     2     2     2         1     1     1     1           11111111

End of Intro--same for Verse 1 and 2 
e
B
G
D  99999999 66666666  44444444  77777777    99999999  66666666  44444444  77777777  
A  99999999 66666666  44444444  77777777    99999999  66666666  44444444  77777777
E  77777777 44444444  22222222  55555555    77777777  44444444  22222222  55555555

Chorus
e
B
G                         6xxxxx  66666666                 6xxxxx  66666666
D       5 5 5    5 5 5    6xxxxx  66666666  666666666666   6xxxxx  66666666  666666666666
A       5 5 5    5 5 5    4xxxxx  44444444  666666666666   4xxxxx  44444444  666666666666
E       3 3 3	 3 3 3                      444444444444                     444444444444  

e
B
G                             7 7    6 6    5 5    4 4    7 7    6 6    5 5    4 4    7 7    6 6    5 5    4 4
D  4xxxxxxxx  444444444444    7 7    6 6    5 5    4 4    7 7    6 6    5 5    4 4    7 7    6 6    5 5    4 4
A  4xxxxxxxx  444444444444    5 5    4 4    3 3    2 2    5 5    4 4    3 3    2 2    5 5    4 4    3 3    2 2 
E  2xxxxxxxx  222222222222

Bridge  (King of the Hill T.V. show intro)
e|----------------|----------------|----------------|-----------------|
B|----------------|----------------|----------------|-----------------|
G|----------------|----------------|----------------|-----------------|
D|----------------|----------------|----------------|-----------------|
A|----------------|0-000-4-2-------|----------------|0-0--------------|
E|0-000-0-4-000-0-|----------------|0-000-0-4-000-0-|----4-4-2-2-4-2--|

e|----------------|----------------|----------------|-----------------|
B|----------------|----------------|----------------|-----------------|
G|----------------|----------------|----------------|------------6-6-6|
D|----------------|----------------|2-2-------------|------------6-6-6|
A|----------------|0-000-4-2-------|----4-4-2-2-0-0-|----0-----  4-4-4|
E|0-000-0-4-000-0-|----------------|----------------|4-4---2-0--------|
                                               
e|----------------|----------------|----------------|-----------------|
B|----------------|----------------|----------------|-----------------|
G|6---6---6---6---|----------------|----------------|-----------------|
D|6---6---6---6---|6---6---6---6---|7-7-7777--7-7-7-|9-9-7-7-6-6-4-4--|
A|4---4---4---4---|6---6---6---6---|7-7-7777--7-7-7-|9-9-7-7-6-6-4-4--|
E|----------------|4---4---4---4---|5-5-5555--5-5-5-|7-7-5-5-4-4-2-2--|

e|----------------|----------------|----------------|-----------------|
B|----------------|----------------|----------------|-----------------|
G|----------------|----------------|----------------|-----------------|
D|----------------|----------------|2-2-------------|----------2-2----|
A|----------------|0-000-4-2-------|----4-4-2-2-0-0-|----0-----2-2----|
E|0-000-0-4-000-0-|----------------|----------------|4-4---2 0-0-0----|

Order
Intro
Verse 1
Chorus
Verse 2
Chorus
Bridge  (King of the Hill)
Chorus

Well thats it!! This is an awesome true punk song from a great band l8r!!!

Sack-0!!!!!!!!!!!!





Comments


Popular Oopunk tabs & chords
Being With You Tabs
Everything Tabs
Fananel Tabs
I Surrender Tabs
Lost Authority Tabs
Punk Or Nothing Tabs
Slaving Over You Tabs
They're You Tabs
Undercover Tabs


Song lyrics



↑ Back to top | Tablatures and chords are parodies/interpretations of the original songs. You may use it for private study, scholarship, research or language learning purposes only
© 2014 AZChords.com Contact us | Privacy policy | DMCA | Add/correct tabs | Request tabs | Top 50 tabs