» » »

TräUmst Du Tabs (ver.2)

Artists:  A B C D E F G H I J K L M N O P Q R S T U V W X Y Z # 

TräUmst Du Tabs (ver.2)

Oomph!
Rating:
0/5 (0 votes)

Hard to play? Try these video lessons and learn fast.
                Oomph!
Träumst du
Glaube, Liebe, Tod


Intro


2nd guitar plays this first:

e|14-14-14-14-14-14-14-14-13-13-13-17-17-17-------|
B|------------------------------------------15-15-|
G|------------------------------------------------|
D|------------------------------------------------|
A|------------------------------------------------|
D|------------------------------------------------| 

e|14-14-14-14-14-14-14-14-13-13-13-17-17-17-------|
B|------------------------------------------15-15-|
G|------------------------------------------------|
D|------------------------------------------------|
A|------------------------------------------------|
D|------------------------------------------------| 

e|14-14-14-14-14-14-14-14-13-13-13-17-17-17-------|
B|------------------------------------------15-15-|
G|------------------------------------------------|
D|------------------------------------------------|
A|------------------------------------------------|
D|------------------------------------------------| 

e|14-14-14-14-14-14-14-14-13-13-13-17-17-17-------|
B|------------------------------------------15-15-|
G|------------------------------------------------|
D|------------------------------------------------|
A|------------------------------------------------|
D|------------------------------------------------|


Then 

1st guitar

e|------------------------------------------------|
B|------------------------------------------------|
G|------------------------------------------------|
D|9--9—-7---7---9-----7--9--9--7---7---9----------|
A|9--9—-7---7---9-----7--9--9--7---7---9----------|
D|9—-9-—7---7---9-----7--9--9--7---7---9----------| 

2nd guitar

e|14-14-14-14-14-14-14-14-13-13-13-17-17-17-------|
B|------------------------------------------15-15-|
G|------------------------------------------------|
D|------------------------------------------------|
A|------------------------------------------------|
D|------------------------------------------------|

1st guitar

e|------------------------------------------------|
B|------------------------------------------------|
G|------------------------------------------------|
D|9--9—-7---7---9-----7--9--9--7---7---9----------|
A|9--9—-7---7---9-----7--9--9--7---7---9----------|
D|9—-9-—7---7---9-----7--9--9--7---7---9----------| 

2nd guitar

e|14-14-14-14-14-14-14-14-13-13-13-17-17-17-------|
B|------------------------------------------15-15-|
G|------------------------------------------------|
D|------------------------------------------------|
A|------------------------------------------------|
D|------------------------------------------------|

1st guitar

e|------------------------------------------------|
B|------------------------------------------------|
G|------------------------------------------------|
D|9--9—-7---7---9-----7--9--9--7---7---9----------|
A|9--9—-7---7---9-----7--9--9--7---7---9----------|
D|9—-9-—7---7---9-----7--9--9--7---7---9----------| 

2nd guitar

e|14-14-14-14-14-14-14-14-13-13-13-17-17-17-------|
B|------------------------------------------15-15-|
G|------------------------------------------------|
D|------------------------------------------------|
A|------------------------------------------------|
D|------------------------------------------------|

1st guitar

e|------------------------------------------------|
B|------------------------------------------------|
G|------------------------------------------------|
D|9--9—-7---7---9-----7--9--9--7---7---9----------|
A|9--9—-7---7---9-----7--9--9--7---7---9----------|
D|9—-9-—7---7---9-----7--9--9--7---7---9----------| 

2nd guitar

e|14-14-14-14-14-14-14-14-13-13-13-17-17-17-------|
B|------------------------------------------15-15-|
G|------------------------------------------------|
D|------------------------------------------------|
A|------------------------------------------------|
D|------------------------------------------------|


1st Verse

e|-----------------------------------------------|
B|-----------------------------------------------|
G|-----------------------------------------------|
D|9--9—-7---7---9--------9--9---7---9------------|
A|9--9—-7---7---9--------9--9---7---9------------|
D|9--9—-7---7---9--------9--9---7---9------------| 

e|-----------------------------------------------|
B|-----------------------------------------------|
G|-----------------------------------------------|
D|9--9—-7---7---9--------9--9---7---9------------|
A|9--9—-7---7---9--------9--9---7---9------------|
D|9--9—-7---7---9--------9--9---7---9------------| 

e|-----------------------------------------------|
B|-----------------------------------------------|
G|-----------------------------------------------|
D|9--9—-7---7---9--------9--9---7---9------------|
A|9--9—-7---7---9--------9--9---7---9------------|
D|9--9—-7---7---9--------9--9---7---9------------| 

e|-----------------------------------------------|
B|-----------------------------------------------|
G|-----------------------------------------------|
D|9--9—-7---7---9--------9--9---7---9------------|
A|9--9—-7---7---9--------9--9---7---9------------|
D|9--9—-7---7---9--------9--9---7---9------------|    


Bridge


e|------------------------------------------------|
B|------------------------------------------------|
G|------------------------------------------------|
D|5~~~~~~~~~~~~~~~~~~~~~~~~~~~~~~~~~~~~~~~~~~~~~~~|
A|5~~~~~~~~~~~~~~~~~~~~~~~~~~~~~~~~~~~~~~~~~~~~~~~|
D|5~~~~~~~~~~~~~~~~~~~~~~~~~~~~~~~~~~~~~~~~~~~~~~~|

e|------------------------------------------------|
B|------------------------------------------------|
G|------------------------------------------------|
D|4~~~~~~~~~~~~~~~~~~~~~~~~~~~~~~~~~~~~~~~~~~~~~~~|
A|4~~~~~~~~~~~~~~~~~~~~~~~~~~~~~~~~~~~~~~~~~~~~~~~|
D|4~~~~~~~~~~~~~~~~~~~~~~~~~~~~~~~~~~~~~~~~~~~~~~~|


1st Chorus

e|------------------------------------------------|
B|------------------------------------------------|
G|------------------------------------------------|
D|9-9-9-9-9-9-9-9-9-9-9-9-7-7-7-7-7-7-7-7-7-7-7-7-|
A|9-9-9-9-9-9-9-9-9-9-9-9-7-7-7-7-7-7-7-7-7-7-7-7-|
D|9-9-9-9-9-9-9-9-9-9-9-9-7-7-7-7-7-7-7-7-7-7-7-7-|
   
e|------------------------------------------------|
B|------------------------------------------------|
G|------------------------------------------------|
D|5-5-5-5-5-5-5-5-5-5-5-5-5-5-5-5-5-5-5-5-4-4-4-4-|
A|5-5-5-5-5-5-5-5-5-5-5-5-5-5-5-5-5-5-5-5-4-4-4-4-|
D|5-5-5-5-5-5-5-5-5-5-5-5-5-5-5-5-5-5-5-5-4-4-4-4-|
   
e|------------------------------------------------|
B|------------------------------------------------|
G|------------------------------------------------|
D|9-9-9-9-9-9-9-9-9-9-9-9-7-7-7-7-7-7-7-7-7-7-7-7-|
A|9-9-9-9-9-9-9-9-9-9-9-9-7-7-7-7-7-7-7-7-7-7-7-7-|
D|9-9-9-9-9-9-9-9-9-9-9-9-7-7-7-7-7-7-7-7-7-7-7-7-|
   
e|------------------------------------------------|
B|------------------------------------------------|
G|------------------------------------------------|
D|5-5-5-5-5-5-5-5-5-5-5-5-5-5-5-5-5-5-5-5-4-4-4-4-|
A|5-5-5-5-5-5-5-5-5-5-5-5-5-5-5-5-5-5-5-5-4-4-4-4-|
D|5-5-5-5-5-5-5-5-5-5-5-5-5-5-5-5-5-5-5-5-4-4-4-4-|


Interlude

e|14-14-14-14-14-14-14-14-13-13-13-17-17-17-------|
B|------------------------------------------15-15-|
G|------------------------------------------------|
D|------------------------------------------------|
A|------------------------------------------------|
D|------------------------------------------------|

1st guitar

e|------------------------------------------------|
B|------------------------------------------------|
G|------------------------------------------------|
D|9--9—-7---7---9-----7--9--9--7---7---9----------|
A|9--9—-7---7---9-----7--9--9--7---7---9----------|
D|9—-9-—7---7---9-----7--9--9--7---7---9----------| 

2nd guitar

e|14-14-14-14-14-14-14-14-13-13-13-17-17-17-------|
B|------------------------------------------15-15-|
G|------------------------------------------------|
D|------------------------------------------------|
A|------------------------------------------------|
D|------------------------------------------------|

1st guitar

e|------------------------------------------------|
B|------------------------------------------------|
G|------------------------------------------------|
D|9--9—-7---7---9-----7--9--9--7---7---9----------|
A|9--9—-7---7---9-----7--9--9--7---7---9----------|
D|9—-9-—7---7---9-----7--9--9--7---7---9----------| 


2nd Verse

e|-----------------------------------------------|
B|-----------------------------------------------|
G|-----------------------------------------------|
D|9--9—-7---7---9--------9--9---7---9------------|
A|9--9—-7---7---9--------9--9---7---9------------|
D|9--9—-7---7---9--------9--9---7---9------------| 

e|-----------------------------------------------|
B|-----------------------------------------------|
G|-----------------------------------------------|
D|9--9—-7---7---9--------9--9---7---9------------|
A|9--9—-7---7---9--------9--9---7---9------------|
D|9--9—-7---7---9--------9--9---7---9------------| 

e|-----------------------------------------------|
B|-----------------------------------------------|
G|-----------------------------------------------|
D|9--9—-7---7---9--------9--9---7---9------------|
A|9--9—-7---7---9--------9--9---7---9------------|
D|9--9—-7---7---9--------9--9---7---9------------| 

e|-----------------------------------------------|
B|-----------------------------------------------|
G|-----------------------------------------------|
D|9--9—-7---7---9--------9--9---7---9------------|
A|9--9—-7---7---9--------9--9---7---9------------|
D|9--9—-7---7---9--------9--9---7---9------------|  


Bridge


e|------------------------------------------------|
B|------------------------------------------------|
G|------------------------------------------------|
D|5~~~~~~~~~~~~~~~~~~~~~~~~~~~~~~~~~~~~~~~~~~~~~~~|
A|5~~~~~~~~~~~~~~~~~~~~~~~~~~~~~~~~~~~~~~~~~~~~~~~|
D|5~~~~~~~~~~~~~~~~~~~~~~~~~~~~~~~~~~~~~~~~~~~~~~~|


2nd Chorus

e|------------------------------------------------|
B|------------------------------------------------|
G|------------------------------------------------|
D|9-9-9-9-9-9-9-9-9-9-9-9-7-7-7-7-7-7-7-7-7-7-7-7-|
A|9-9-9-9-9-9-9-9-9-9-9-9-7-7-7-7-7-7-7-7-7-7-7-7-|
D|9-9-9-9-9-9-9-9-9-9-9-9-7-7-7-7-7-7-7-7-7-7-7-7-|
   
e|------------------------------------------------|
B|------------------------------------------------|
G|------------------------------------------------|
D|5-5-5-5-5-5-5-5-5-5-5-5-5-5-5-5-5-5-5-5-4-4-4-4-|
A|5-5-5-5-5-5-5-5-5-5-5-5-5-5-5-5-5-5-5-5-4-4-4-4-|
D|5-5-5-5-5-5-5-5-5-5-5-5-5-5-5-5-5-5-5-5-4-4-4-4-|
   
e|------------------------------------------------|
B|------------------------------------------------|
G|------------------------------------------------|
D|9-9-9-9-9-9-9-9-9-9-9-9-7-7-7-7-7-7-7-7-7-7-7-7-|
A|9-9-9-9-9-9-9-9-9-9-9-9-7-7-7-7-7-7-7-7-7-7-7-7-|
D|9-9-9-9-9-9-9-9-9-9-9-9-7-7-7-7-7-7-7-7-7-7-7-7-|
   
e|------------------------------------------------|
B|------------------------------------------------|
G|------------------------------------------------|
D|5-5-5-5-5-5-5-5-5-5-5-5-5-5-5-5-5-5-5-5-4-4-4-4-|
A|5-5-5-5-5-5-5-5-5-5-5-5-5-5-5-5-5-5-5-5-4-4-4-4-|
D|5-5-5-5-5-5-5-5-5-5-5-5-5-5-5-5-5-5-5-5-4-4-4-4-|


C-Part

e|------------------------------------------------|
B|------------------------------------------------|
G|------------------------------------------------|
D|9-----9-----9-----9-----9-----------------------|
A|------------------------------------------------|
D|------------------------------------------------|

e|------------------------------------------------|
B|------------------------------------------------|
G|------------------------------------------------|
D|9-----9-----9-----9-----9-----------------------|
A|------------------------------------------------|
D|------------------------------------------------|

e|------------------------------------------------|
B|------------------------------------------------|
G|------------------------------------------------|
D|9-----9-----9-----9-----9-----------------------|
A|------------------------------------------------|
D|------------------------------------------------|

e|------------------------------------------------|
B|------------------------------------------------|
G|------------------------------------------------|
D|9-----9-----9-----9-----9-----------------------|
A|------------------------------------------------|
D|------------------------------------------------|


e|------------------------------------------------|
B|------------------------------------------------|
G|------------------------------------------------|
D|9--9—-7---7---9-----7--9--9--7---7---9----------|
A|9--9—-7---7---9-----7--9--9--7---7---9----------|
D|9—-9-—7---7---9-----7--9--9--7---7---9----------| 

e|------------------------------------------------|
B|------------------------------------------------|
G|------------------------------------------------|
D|9--9—-7---7---9-----7--9--9--7---7---9----------|
A|9--9—-7---7---9-----7--9--9--7---7---9----------|
D|9—-9-—7---7---9-----7--9--9--7---7---9----------| 

e|------------------------------------------------|
B|------------------------------------------------|
G|------------------------------------------------|
D|9--9—-7---7---9-----7--9--9--7---7---9----------|
A|9--9—-7---7---9-----7--9--9--7---7---9----------|
D|9—-9-—7---7---9-----7--9--9--7---7---9----------| 

e|------------------------------------------------|
B|------------------------------------------------|
G|------------------------------------------------|
D|9--9—-7---7---9-----7--9--9--7---7---9----------|
A|9--9—-7---7---9-----7--9--9--7---7---9----------|
D|9—-9-—7---7---9-----7--9--9--7---7---9----------| 


Bridge


e|------------------------------------------------|
B|------------------------------------------------|
G|------------------------------------------------|
D|5~~~~~~~~~~~~~~~~~~~~~~~~~~~~~~~~~~~~~~~~~~~~~~~|
A|5~~~~~~~~~~~~~~~~~~~~~~~~~~~~~~~~~~~~~~~~~~~~~~~|
D|5~~~~~~~~~~~~~~~~~~~~~~~~~~~~~~~~~~~~~~~~~~~~~~~|


2nd Chorus

e|------------------------------------------------|
B|------------------------------------------------|
G|------------------------------------------------|
D|9-9-9-9-9-9-9-9-9-9-9-9-7-7-7-7-7-7-7-7-7-7-7-7-|
A|9-9-9-9-9-9-9-9-9-9-9-9-7-7-7-7-7-7-7-7-7-7-7-7-|
D|9-9-9-9-9-9-9-9-9-9-9-9-7-7-7-7-7-7-7-7-7-7-7-7-|
   
e|------------------------------------------------|
B|------------------------------------------------|
G|------------------------------------------------|
D|5-5-5-5-5-5-5-5-5-5-5-5-5-5-5-5-5-5-5-5-4-4-4-4-|
A|5-5-5-5-5-5-5-5-5-5-5-5-5-5-5-5-5-5-5-5-4-4-4-4-|
D|5-5-5-5-5-5-5-5-5-5-5-5-5-5-5-5-5-5-5-5-4-4-4-4-|
   
e|------------------------------------------------|
B|------------------------------------------------|
G|------------------------------------------------|
D|9-9-9-9-9-9-9-9-9-9-9-9-7-7-7-7-7-7-7-7-7-7-7-7-|
A|9-9-9-9-9-9-9-9-9-9-9-9-7-7-7-7-7-7-7-7-7-7-7-7-|
D|9-9-9-9-9-9-9-9-9-9-9-9-7-7-7-7-7-7-7-7-7-7-7-7-|
   
e|------------------------------------------------|
B|------------------------------------------------|
G|------------------------------------------------|
D|5-5-5-5-5-5-5-5-5-5-5-5-5-5-5-5-5-5-5-5-4-4-4-4-|
A|5-5-5-5-5-5-5-5-5-5-5-5-5-5-5-5-5-5-5-5-4-4-4-4-|
D|5-5-5-5-5-5-5-5-5-5-5-5-5-5-5-5-5-5-5-5-4-4-4-4-|


Coda

e|14-14-14-14-14-14-14-14-13-13-13-17-17-17-------|
B|------------------------------------------15-15-|
G|------------------------------------------------|
D|------------------------------------------------|
A|------------------------------------------------|
D|------------------------------------------------| 

e|14-14-14-14-14-14-14-14-13-13-13-17-17-17-------|
B|------------------------------------------15-15-|
G|------------------------------------------------|
D|------------------------------------------------|
A|------------------------------------------------|
D|------------------------------------------------| 
            
Hard to play? Try these video lessons and learn fast. | Correct




comments powered by Disqus
↑ Back to top | Tablatures and chords are parodies/interpretations of the original songs. You may use it for private study, scholarship, research or language learning purposes only