» » »

Oomph!, Tief In Dir Tabs (ver.1)

Artists:  A B C D E F G H I J K L M N O P Q R S T U V W X Y Z # 

Tief In Dir Tabs (ver.1)

Oomph! Tabs
Rating:
0/5 (0 votes)
Tief In Dir lessons Tabs too difficult? Try these video lessons and learn fast
                INTRO:(clean)
d|-------------------------------------------------------------|
A|-------------------------------------------------------------|
F|-------------------------------7-7-7-7-7-7-------------------|
C|-9-9-9-9-9-9--5--5-5-5-5-5-5-5-7-7-7-7-7-7-7--7-7-7-7-7-7-7--|
G|-9-9-9-9-9-9--5--5-5-5-5-5-5-5-5-5-5-5-5-5-7--7-7-7-7-7-7-7--|
C|-9-9-9-9-9-9--5--5-5-5-5-5-5-5-------------7--7-7-7-7-7-7-7--|

d|-------------------------------------------------------------|
A|-------------------------------------------------------------|
F|-------------------------------7-7-7-7-7-7-------------------|
C|-9-9-9-9-9-9--5--5-5-5-5-5-5-5-7-7-7-7-7-7-7-----------------|
G|-9-9-9-9-9-9--5--5-5-5-5-5-5-5-5-5-5-5-5-5-7-----------------|
C|-9-9-9-9-9-9--5--5-5-5-5-5-5-5-------------7-----------------|

(distorted)
d|-------------------------------------------------------------|
A|-------------------------------------------------------------|
F|-------------------------------------------------------------|
C|-9-9-9-9-9-9--5--5-5-5-5-5-5-5-0-0-0-0-0-0-7--7-7-7-7-7-7-7--|
G|-9-9-9-9-9-9--5--5-5-5-5-5-5-5-0-0-0-0-0-0-7--7-7-7-7-7-7-7--|x2
C|-9-9-9-9-9-9--5--5-5-5-5-5-5-5-0-0-0-0-0-0-7--7-7-7-7-7-7-7--|

VERSE:
d|------------------------------------------------------------------------|
A|------------------------------------------------------------------------|
F|--------------------------------------------6667-7-9-9---------6667799--|
C|-9-9-9-9-----------9-9-9-9---------5557779996667-7-9-95557779996667799--|x2
G|-9-9-9-9-----------9-9-9-9---------5557779994445-5-7-75557779994445577--|
C|-9-9-9-9-----------9-9-9-9---------555777999----------555777999---------|

d|------------------------------------------------|
A|------------------------------------------------|
F|------------------------------------------------|
C|-5-5-5-5-----7-7-7-7------9-9-9-7-9--9-9-9-7-9--|x3
G|-5-5-5-5-----7-7-7-7------7-7-7-5-7--7-7-7-5-7--|
C|-5-5-5-5-----7-7-7-7----------------------------|

d|-----------------------|
A|-----------------------|
F|-----------------------|
C|-5-5-5-5-----7-7-7-7---|
G|-5-5-5-5-----7-7-7-7---|
C|-5-5-5-5-----7-7-7-7---|

CHORUS:
d|-------------------------------------------------------------|
A|-------------------------------------------------------------|
F|-------------------------------------------------------------|
C|-9-9-9-9-9-9--5--5-5-5-5-5-5-5-0-0-0-0-0-0-7--7-7-7-7-7-7-7--|x2
G|-9-9-9-9-9-9--5--5-5-5-5-5-5-5-0-0-0-0-0-0-7--7-7-7-7-7-7-7--|
C|-9-9-9-9-9-9--5--5-5-5-5-5-5-5-0-0-0-0-0-0-7--7-7-7-7-7-7-7--|

VERSE:
d|------------------------------------------------------------------------|
A|------------------------------------------------------------------------|
F|--------------------------------------------6667-7-9-9---------6667799--|
C|-9-9-9-9-----------9-9-9-9---------5557779996667-7-9-95557779996667799--|x2
G|-9-9-9-9-----------9-9-9-9---------5557779994445-5-7-75557779994445577--|
C|-9-9-9-9-----------9-9-9-9---------555777999----------555777999---------|

d|------------------------------------------------|
A|------------------------------------------------|
F|------------------------------------------------|
C|-5-5-5-5-----7-7-7-7------9-9-9-7-9--9-9-9-7-9--|x3
G|-5-5-5-5-----7-7-7-7------7-7-7-5-7--7-7-7-5-7--|
C|-5-5-5-5-----7-7-7-7----------------------------|

d|-----------------------|
A|-----------------------|
F|-----------------------|
C|-5-5-5-5-----7-7-7-7---|
G|-5-5-5-5-----7-7-7-7---|
C|-5-5-5-5-----7-7-7-7---|

CHORUS:
d|-------------------------------------------------------------|
A|-------------------------------------------------------------|
F|-------------------------------------------------------------|
C|-9-9-9-9-9-9--5--5-5-5-5-5-5-5-0-0-0-0-0-0-7--7-7-7-7-7-7-7--|x2
G|-9-9-9-9-9-9--5--5-5-5-5-5-5-5-0-0-0-0-0-0-7--7-7-7-7-7-7-7--|
C|-9-9-9-9-9-9--5--5-5-5-5-5-5-5-0-0-0-0-0-0-7--7-7-7-7-7-7-7--|

INTERLUDE:(clean)
d|-------------------------------------------------------------|
A|-------------------------------------------------------------|
F|-------------------------------7-7-7-7-7-7-------------------|
C|-9-9-9-9-9-9--5--5-5-5-5-5-5-5-7-7-7-7-7-7-7--7-7-7-7-7-7-7--|
G|-9-9-9-9-9-9--5--5-5-5-5-5-5-5-5-5-5-5-5-5-7--7-7-7-7-7-7-7--|
C|-9-9-9-9-9-9--5--5-5-5-5-5-5-5-------------7--7-7-7-7-7-7-7--|

d|-------------------------------------------------------------|
A|-------------------------------------------------------------|
F|-------------------------------7-7-7-7-7-7-------------------|
C|-9-9-9-9-9-9--5--5-5-5-5-5-5-5-7-7-7-7-7-7-7-----------------|
G|-9-9-9-9-9-9--5--5-5-5-5-5-5-5-5-5-5-5-5-5-7-----------------|
C|-9-9-9-9-9-9--5--5-5-5-5-5-5-5-------------7-----------------|

CHORUS:
d|-------------------------------------------------------------|
A|-------------------------------------------------------------|
F|-------------------------------------------------------------|
C|-9-9-9-9-9-9--5--5-5-5-5-5-5-5-0-0-0-0-0-0-7--7-7-7-7-7-7-7--|
G|-9-9-9-9-9-9--5--5-5-5-5-5-5-5-0-0-0-0-0-0-7--7-7-7-7-7-7-7--|x8
C|-9-9-9-9-9-9--5--5-5-5-5-5-5-5-0-0-0-0-0-0-7--7-7-7-7-7-7-7--|

d|-----------|
A|-----------|
F|-----------|
C|-9-9-9-9\--|
G|-9-9-9-9\--|
C|-9-9-9-9\--|
            

comments powered by Disqus
↑ Back to top | Oomph! Tabs for Tief In Dir. Lyrics for acoustic guitar and electric guitar. Tablatures and chords are parodies/interpretations of the original songs. You may use it for private study, scholarship, research or language learning purposes only