» » »

Tausend Neue LüGen Tabs (ver.1)

Artists:  A B C D E F G H I J K L M N O P Q R S T U V W X Y Z # 

Tausend Neue LüGen Tabs (ver.1)

Oomph!
Rating:
0/5 (0 votes)

Hard to play? Try these video lessons and learn fast.
                Main Riff/Verse Riff
e|------------------------------|
B|------------------------------|
G|------------------------------|
D|-2-5-7-8-7--2-5-7-8-7--2-2--2-|
A|-2-5-7-8-7--2-5-7-8-7--2-2--2-|
E|-0-3-5-6-5--0-3-5-6-5--0-0--0-|
. .

(Konntest du dir nicht verzeihn)
e|--------|
B|--------|
G|--------|
D|-2-2--2-|
A|-2-2--2-|
E|-0-0--0-|
. . .

Chorus (Alles bleibt in dir bestehn) 2x
e|---------------------------------------------------------|
B|---------------------------------------------------------|
G|-5-5-5-5-5-5-5-5-5-5-5-5-5-5-----------------------7-7-7-|
D|-5-5-5-5-5-5-5-5-5-5-5-5-5-5-2-2-2-2-2-2-2-2-2-2-2-7-7-7-|
A|-3-3-3-3-3-3-3-3-3-3-3-3-3-3-2-2-2-2-2-2-2-2-2-2-2-5-5-5-|
E|-----------------------------0-0-0-0-0-0-0-0-0-0-0-------|


Chorus Continued (Wenn du wirklich willst) 2x
e|---------------------------------------------------------|
B|---------------------------------------------------------|
G|-5-5-5-5-5-5-5-5-7-7-7-7-7-7-7-7-2-2-2-2-2-2-2-2-2-2-2-2-|
D|-5-5-5-5-5-5-5-5-7-7-7-7-7-7-7-7-2-2-2-2-2-2-2-2-2-2-2-2-|
A|-3-3-3-3-3-3-3-3-5-5-5-5-5-5-5-5-0-0-0-0-0-0-0-0-0-0-0-0-|
E|---------------------------------------------------------| 
            
Hard to play? Try these video lessons and learn fast. | Correct




comments powered by Disqus
↑ Back to top | Tablatures and chords are parodies/interpretations of the original songs. You may use it for private study, scholarship, research or language learning purposes only