» » »

Oomph!, Sex Hat Keine Macht Tabs (ver.1)

Artists:  A B C D E F G H I J K L M N O P Q R S T U V W X Y Z # 

Sex Hat Keine Macht Tabs (ver.1)

Oomph! Tabs
 Rating:
4/5 (4 votes)
Sex Hat Keine Macht lessons Tabs too difficult? Try these video lessons and learn fast
1
                VERSE:
d|--------------------------------------------------|
A|--------------------------------------------------|
F|--------------------------------------------------|
C|--4-5-4-----4-4-5-4------4-5-4-----4-4-5-4---2----|
G|--4-5-4-----4-4-5-4------4-5-4-----4-4-5-4---2----|x6
C|--4-5-4-----4-4-5-4------4-5-4-----4-4-5-4---2----|

CHORUS:
d|----------------------------------------------------------------------------|
A|----------------------------------------------------------------------------|
F|----------------------------------------------------------------------------|
C|-7-7-7-777\6-6-66-6-4--4---4--77777777-7-7-7-777\6-6-66-6-4-4-4-4-4-4-4-4-4-|
G|-5-5-5-555\4-4-44-4-4--4---4--77777777-5-5-5-555\4-4-44-4-4-4-4-4-4-4-4-4-4-|
C|--------------------4--4---4--77777777--------------------4-4-4-4-4-4-4-4-4-|

d|--------------------------------------------------------------------------|
A|--------------------------------------------------------------------------|
F|--------------------------------------------------------------------------|
C|-4-4-4-4442-2-22-2-4-4-4-4-4-4-4-4-4-7-7-7-777\6-6-66-6-4-4-4-4-4-4-4-4-4-|
G|-2-2-2-2222-2-22-2-4-4-4-4-4-4-4-4-4-5-5-5-555\4-4-44-4-4-4-4-4-4-4-4-4-4-|
C|----------2-2-22-2-4-4-4-4-4-4-4-4-4--------------------4-4-4-4-4-4-4-4-4-|

VERSE:
d|--------------------------------------------------|
A|--------------------------------------------------|
F|--------------------------------------------------|
C|--4-5-4-----4-4-5-4------4-5-4-----4-4-5-4---2----|
G|--4-5-4-----4-4-5-4------4-5-4-----4-4-5-4---2----|x6
C|--4-5-4-----4-4-5-4------4-5-4-----4-4-5-4---2----|

CHORUS:
d|----------------------------------------------------------------------------|
A|----------------------------------------------------------------------------|
F|----------------------------------------------------------------------------|
C|-7-7-7-777\6-6-66-6-4--4---4--77777777-7-7-7-777\6-6-66-6-4-4-4-4-4-4-4-4-4-|
G|-5-5-5-555\4-4-44-4-4--4---4--77777777-5-5-5-555\4-4-44-4-4-4-4-4-4-4-4-4-4-|
C|--------------------4--4---4--77777777--------------------4-4-4-4-4-4-4-4-4-|

d|--------------------------------------------------------------------------|
A|--------------------------------------------------------------------------|
F|--------------------------------------------------------------------------|
C|-4-4-4-4442-2-22-2-4-4-4-4-4-4-4-4-4-7-7-7-777\6-6-66-6-4-4-4-4-4-4-4-4-4-|
G|-2-2-2-2222-2-22-2-4-4-4-4-4-4-4-4-4-5-5-5-555\4-4-44-4-4-4-4-4-4-4-4-4-4-|
C|----------2-2-22-2-4-4-4-4-4-4-4-4-4--------------------4-4-4-4-4-4-4-4-4-|

SOLO:
guitar one
d|----------------------------------------------------------------------------|
A|----------------------------------------------------------------------------|
F|----------------------------------------------------------------------------|
C|-7-7-7-777\6-6-66-6-4--4---4--77777777-7-7-7-777\6-6-66-6-4-4-4-4-4-4-4-4-4-|
G|-5-5-5-555\4-4-44-4-4--4---4--77777777-5-5-5-555\4-4-44-4-4-4-4-4-4-4-4-4-4-|
C|--------------------4--4---4--77777777--------------------4-4-4-4-4-4-4-4-4-|

d|--------------------------------------------------------------------------|
A|--------------------------------------------------------------------------|
F|--------------------------------------------------------------------------|
C|-4-4-4-4442-2-22-2-4-4-4-4-4-4-4-4-4-7-7-7-777\6-6-66-6-4-4-4-4-4-4-4-4-4-|
G|-2-2-2-2222-2-22-2-4-4-4-4-4-4-4-4-4-5-5-5-555\4-4-44-4-4-4-4-4-4-4-4-4-4-|
C|----------2-2-22-2-4-4-4-4-4-4-4-4-4--------------------4-4-4-4-4-4-4-4-4-|

guitar two
d|-----------------------------------------------------------------------------|
A|-----------------------------------------------------19-19--14--12-11~-12-14-|
F|-13h14-14-14---------13~---13-16-18-16----13-14-14~--------------------------|
C|-------------16p14~----------------------------------------------------------|
G|-----------------------------------------------------------------------------|
C|-----------------------------------------------------------------------------|

d|---------------------------------------------------------------------------|
A|----------------17-14-12-11-11-12-14---------------------------------------|
F|-----9h11-11~-------------------------11--11--9----------------------------|
C|-9h11-------------------------------------------11p9-----------------------|
G|----------------------------------------------------11p9h11--9br-9br-9br---|
C|---------------------------------------------------------------------------|

INTERLUDE:
d|----------------|
A|----------------|
F|---111111111111-|
C|---x-x-x-x-x-x--|
G|---9-9-9-9-9-9--|
C|----------------|

CHORUS:
d|----------------------------------------------------------------------------|
A|----------------------------------------------------------------------------|
F|----------------------------------------------------------------------------|
C|-7-7-7-777\6-6-66-6-4--4---4--77777777-7-7-7-777\6-6-66-6-4-4-4-4-4-4-4-4-4-|
G|-5-5-5-555\4-4-44-4-4--4---4--77777777-5-5-5-555\4-4-44-4-4-4-4-4-4-4-4-4-4-|
C|--------------------4--4---4--77777777--------------------4-4-4-4-4-4-4-4-4-|

d|--------------------------------------------------------------------------|
A|--------------------------------------------------------------------------|
F|--------------------------------------------------------------------------|
C|-4-4-4-4442-2-22-2-4-4-4-4-4-4-4-4-4-7-7-7-777\6-6-66-6-4-4-4-4-4-4-4-4-4-|
G|-2-2-2-2222-2-22-2-4-4-4-4-4-4-4-4-4-5-5-5-555\4-4-44-4-4-4-4-4-4-4-4-4-4-|
C|----------2-2-22-2-4-4-4-4-4-4-4-4-4--------------------4-4-4-4-4-4-4-4-4-|
            
Submit corrections

comments powered by Disqus
↑ Back to top | Oomph! Tabs for Sex Hat Keine Macht. Lyrics for acoustic guitar and electric guitar. 1 Tablatures and chords are parodies/interpretations of the original songs. You may use it for private study, scholarship, research or language learning purposes only