» » »

Nichts Ist Kalter Als Deine Liebe Bass tabs (ver.1)

Artists:  A B C D E F G H I J K L M N O P Q R S T U V W X Y Z # 

Nichts Ist Kalter Als Deine Liebe Bass tabs (ver.1)

Oomph!
Rating:
0/5 (0 votes)

Hard to play? Try these video lessons and learn fast.
                Intro/Verse:
Starts after acoustic part
G|-----------------------------|
D|-----------------------------|
A|-----------------------------|x12
D|-1-0-0-1-0-0-0-1-0-0-1-0-0-0-|

PreChorus
G|--------------------|
D|--------------------|
A|--------------------|x3
D|-00---00---00---00--|

G|--------------------|
D|--------------------|
A|--------------------|
D|-00---00---00-------|

Chorus
G|---------------------------|
D|---------------------------|
A|--5---3---0~--8---3---0~---|x4
D|---------------------------|

Verse
G|-----------------------------|
D|-----------------------------|
A|-----------------------------|x12
D|-1-0-0-1-0-0-0-1-0-0-1-0-0-0-|

PreChorus
G|--------------------|
D|--------------------|
A|--------------------|x3
D|-00---00---00---00--|

G|--------------------|
D|--------------------|
A|--------------------|
D|-00---00---00-------|

Chorus
G|---------------------------|
D|---------------------------|
A|--5---3---0~--8---3---0~---|x4
D|---------------------------|

Acoustic Break

Then
Chorus
G|---------------------------|
D|---------------------------|
A|--5---3---0~--8---3---0~---|x5
D|---------------------------|

G|---------------------------|
D|---------------------------|
A|--5---3---0~--8---3--------|
D|---------------------------|
            
Hard to play? Try these video lessons and learn fast. | Correct




comments powered by Disqus
↑ Back to top | Tablatures and chords are parodies/interpretations of the original songs. You may use it for private study, scholarship, research or language learning purposes only