» » »

Oomph!, Mein Schatz Tabs (ver.1)

Artists:  A B C D E F G H I J K L M N O P Q R S T U V W X Y Z # 

Mein Schatz Tabs (ver.1)

Oomph! Tabs
Rating:
0/5 (0 votes)
Hard to play? Try these video lessons and learn fast.
                -------------------------------------------------------------------------------
-------------------------------------------------------------------------------

Tuning:Drop C tabed for Drop D


| /  slide up
| \  slide down
| h  hammer-on
| p  pull-off
| ~  vibrato
| +  harmonic
| x  Mute note

Guitars I&II
e|---------------------|
B|---------------------|
G|---------------------|X6
D|-5535--555/8855--555-|
A|-5535--555/8855--555-|
D|-5535--555/8855--555-|


0:24 Guitars I&II
e|--------------------------------|
B|--------------------------------|
G|--------------------------------|
D|-000-10--000-10--000-10--000-10-|X4
A|-000-10--000-10--000-10--000-10-|
D|-000-10--000-10--000-10--000-10-|
pm ...     ...     ...     ...

0:49 Guitars I&II
e|---------------------|
B|---------------------|
G|---------------------|X2
D|-5535--555/8855--555-|
A|-5535--555/8855--555-|
D|-5535--555/8855--555-|

0:56 Guitar I              Guitar II for synth
e|----------------------| |e-----------------|
B|----------------------| |B-----------------|
G|----------------------| |G-----------------|tremelo pick then let ring out
D|----------------------| |D-21-20-19-18-----|
A|----------------------| |A-----------------|
D|-0-3p0-6\5-00-3p0-6\5-| |D-----------------|

1:19 GuitarsI&II
e|-------------------------------------------------|
B|-------------------------------------------------|
G|-------------------------------------------------|
D|-55-55-55-55-22-22-22-22-00-00-00-00-44-44-44-44-|X3
A|-55-55-55-55-22-22-22-22-00-00-00-00-44-44-44-44-|
D|-55-55-55-55-22-22-22-22-00-00-00-00-44-44-44-44-|

1:27 GuitarsI&II
e|--------------------|
B|--------------------|
G|--------------------|X2
D|-75p0-65p0-000356000|
A|-75p0-65p0-000356000|
D|-75p0-65p0-000356000|

1:36 Guitars I&II
e|--------------------------------|
B|--------------------------------|
G|--------------------------------|
D|-000-10--000-10--000-10--000-10-|X2
A|-000-10--000-10--000-10--000-10-|
D|-000-10--000-10--000-10--000-10-|
pm ...     ...     ...     ...

1:47 Guitars I&II
e|---------------------|
B|---------------------|
G|---------------------|X2
D|-5535--555/8855--555-|
A|-5535--555/8855--555-|
D|-5535--555/8855--555-|

1:55 Guitar I
e|-----------------------------|
B|-----------------------------|
G|synth for guitarII here again|
D|-----------------------------| 
A|-----------------------------|
D|-0-3p0-6\5-00-3p0-6\5--------|

2:08 Guitars I&II
e|-------------------------------------------------|
B|-------------------------------------------------|
G|-------------------------------------------------|
D|-55-55-55-55-22-22-22-22-00-00-00-00-44-44-44-44-|X3 On 3rd end after 2's
A|-55-55-55-55-22-22-22-22-00-00-00-00-44-44-44-44-|  
D|-55-55-55-55-22-22-22-22-00-00-00-00-44-44-44-44-|

2:26 Guitars I&II
e|--------------------|
B|--------------------|
G|--------------------|X2
D|-75p0-65p0-000356000|
A|-75p0-65p0-000356000|
D|-75p0-65p0-000356000|

2:32 Guitar I
e|----------------------|
B|----------------------|
G|----------------------|
D|----------------------|X2 Synth part for guitar II here again 
A|----------------------|
D|-0-3p0-6\5-00-3p0-6\5-|

2:39 Guitar II during solo
e|-------------------------------------------------|
B|-------------------------------------------------|
G|-------------------------------------------------|
D|-55-55-55-55-22-22-22-22-00-00-00-00-44-44-44-44-|X2
A|-55-55-55-55-22-22-22-22-00-00-00-00-44-44-44-44-|  
D|-55-55-55-55-22-22-22-22-00-00-00-00-44-44-44-44-|

2:39 Guitar I solo:
e|----------------------|
B|----------------------|
G|----------------------|
D|----------------------|X4 With wah 
A|-0-3p0-5b-00-3p0-5b---|
D|----------------------|

2:52 Guitars I&II
e|-------------------------------------------------|
B|-------------------------------------------------|
G|-------------------------------------------------|
D|-55-55-55-55-22-22-22-22-00-00-00-00-44-44-44-44-|X5 on 5th end after 2's
A|-55-55-55-55-22-22-22-22-00-00-00-00-44-44-44-44-|  
D|-55-55-55-55-22-22-22-22-00-00-00-00-44-44-44-44-|

3:24 Guitars I&II
e|-----------------------------------------------------|
B|-----------------------------------------------------|
G|-----------------------------------------------------|X3 
D|-75p0-65p0-000356000 pause here on second repetition-|
A|-75p0-65p0-000356000---------------------------------|
D|-75p0-65p0-000356000---------------------------------|

This is my first tab so please rate.
===============================================================================
            

comments powered by Disqus
↑ Back to top | Oomph! Tabs for Mein Schatz. Lyrics for acoustic guitar and electric guitar. Tablatures and chords are parodies/interpretations of the original songs. You may use it for private study, scholarship, research or language learning purposes only