» » »

Oomph!, Kein Luft Mehr Tabs (ver.1)

Artists:  A B C D E F G H I J K L M N O P Q R S T U V W X Y Z # 

Kein Luft Mehr Tabs (ver.1)

Oomph! Tabs
 Rating:
4/5 (4 votes)
Kein Luft Mehr lessons Tabs too difficult? Try these video lessons and learn fast
                

E|------------------------------------------------------|
B|------------------------------------------------------|
G|------------------------------------------------------|
D|-2-2--2-2--2-2--2-2--2-2--2-2--2-2--2-2--2-2--2-4/5\4-|
A|-2-2--2-2--2-2--2-2--2-2--2-2--2-2--2-2--2-2--2-4/5\4-|
E|-0-0--0-0--0-0--0-0--0-0--0-0--0-0--0-0--0-0--0-2/3\2-|
Note: Palm Mute (pm) after each chord

Chorous
E|--------------|
B|--------------|
G|--------------|
D|-7-6-10-5-6-5-|
A|-7-6-10-5-6-5-|
E|-5-4--8-3/4\3-|

"Beiss in ........"
E|-----------------------------------------|
B|-----------------------------------------|
G|-----------------------------------------|
D|-2-4-2-4-2-4-2-4-2-4-2-4-2-4-2-4-2-4-5-0-|
A|-2-4-2-4-2-4-2-4-2-4-2-4-2-4-2-4-2-4-5-0-|
E|-0-2-0-2-0-2-0-2-0-2-0-2-0-2-0-2-0-2-3-0-|

"Nie wieder..... "
E|-----------------------|
B|-----------------------|
G|-----------------------|
D|-5-5-5-4-5-5-5-4-6-5-4-|
A|-5-5-5-4-5-5-5-4-6-5-4-|
E|-3-3-3-2-3-3-3-2-4-3-2-|
            
Submit corrections

comments powered by Disqus
↑ Back to top | Oomph! Tabs for Kein Luft Mehr. Lyrics for acoustic guitar and electric guitar. Tablatures and chords are parodies/interpretations of the original songs. You may use it for private study, scholarship, research or language learning purposes only