» » »

Oomph!, Keine Luft Mehr Tabs (ver.1)

Artists:  A B C D E F G H I J K L M N O P Q R S T U V W X Y Z # 

Keine Luft Mehr Tabs (ver.1)

Oomph! Tabs
Rating:
0/5 (0 votes)
Keine Luft Mehr lessons Tabs too difficult? Try these video lessons and learn fast
                e|------------------------------------------------------|
B|------------------------------------------------------|
G|------------------------------------------------------|
D|-2-2--2-2--2-2--2-2--2-2--2-2--2-2--2-2--2-2--2-4/5\4-|
A|-2-2--2-2--2-2--2-2--2-2--2-2--2-2--2-2--2-2--2-4/5\4-|
D|-2-2--2-2--2-2--2-2--2-2--2-2--2-2--2-2--2-2--2-4/5\4-|
Note: Palm Mute (pm) after each chord

Chorus
e|--------------|
B|--------------|
G|--------------|
D|-7-6-10-5-6-5-|
A|-7-6-10-5-6-5-|
D|-7-6-10-5/6\5-|

"Beiss in ........"
e|-----------------------------------------|
B|-----------------------------------------|
G|-----------------------------------------|
D|-2-4-2-4-2-4-2-4-2-4-2-4-2-4-2-4-2-4-5-0-|
A|-2-4-2-4-2-4-2-4-2-4-2-4-2-4-2-4-2-4-5-0-|
D|-2-4-2-4-2-4-2-4-2-4-2-4-2-4-2-4-2-4-5-0-|

"Nie wieder..... "
e|-----------------------|
B|-----------------------|
G|-----------------------|
D|-5-5-5-4-5-5-5-4-6-5-4-|
A|-5-5-5-4-5-5-5-4-6-5-4-|
D|-5-5-5-4-5-5-5-4-6-5-4-|
            

comments powered by Disqus
↑ Back to top | Oomph! Tabs for Keine Luft Mehr. Lyrics for acoustic guitar and electric guitar. Tablatures and chords are parodies/interpretations of the original songs. You may use it for private study, scholarship, research or language learning purposes only