» » »

Oomph!, Gekreuzigt Tabs (ver.1)

Artists:  A B C D E F G H I J K L M N O P Q R S T U V W X Y Z # 

Gekreuzigt Tabs (ver.1)

Oomph! Tabs
 Rating:
4/5 (4 votes)
Gekreuzigt lessons Tabs too difficult? Try these video lessons and learn fast
                Band: "Oomph!"
Track:"Gekreuzigt"


Tuning Drop D, 1 Step down, CGCfad




[VERSE]


d|---------------------------------------|
a|---------------------------------------|
f|---------------------------------------|
C|--------3------0--2-------2--0-2-3-6---|
G|---2-2--3-3-3--0--2--2-2--2--0-2-3-6---|
C|---2-2--3-3-3--0--2--2-2--2--0-2-3-6---|
P.M. . .    . .        . .

  ---------------------------------------|
  ---------------------------------------|
  ---------------------------------------|
  --------3------0--2-------2--0-2-3-0---|
  ---2-2--3-3-3--0--2--2-2--2--0-2-3-0---|
  ---2-2--3-3-3--0--2--2-2--2--0-2-3-0---|
P.M. . .    . .        . .

  ---------------------------------------|
  ---------------------------------------|
  ---------------------------------------|
  --------3------0--2-------2--0-2-3-6---|
  ---2-2--3-3-3--0--2--2-2--2--0-2-3-6---|
  ---2-2--3-3-3--0--2--2-2--2--0-2-3-6---|
P.M. . .    . .        . .

  -----------------------------------||
  -----------------------------------||
  -----------------------------------||
  --------3------0--2-------2--3--0--||
  ---2-2--3-3-3--0--2--2-2--2--3--0--||
  ---2-2--3-3-3--0--2--2-2--2--3--0--||
P.M. . .    . .        . .



[INTERLUDE]

d|--------------||
a|--------------||
f|--------------||
C|--10-10-10-9--||   X4
G|--10-10-10-9--||
C|--10-10-10-9--||


[CHORUS]

d|------------------------------------||
a|------------------------------------||
f|------------------------------------||
C|--------2------0--55-------22--2h3--||   X8
G|---2-2--2-2-2--0--55--2-2--22--2h3--||
C|---2-2--2-2-2--0--55--2-2--22--2h3--||
P.M. . .    . .         . .


[BRIDGE]


d|------------------------------------------------------------||
a|------------------------------------------------------------||
f|-------------------------------------------10-9-------------|| X2
C|-------------3------------0------------3---10-9--8-9-10-12--||
G|-------------3------------0------------3---8--7--8-9-10-12--||
C|---222--2-2--3--222--2-2--0--222--2-2--3---------8-9-10-12--||
P.M. ...  . .     ...  . .     ...  . .
     -3-          -3-          -3-

ORDER:

VERSE X3
INTERLUDE
CHORUS
BRIDGE
VERSE
Guitar plays nothing (lenght = 2XVERSE)
INTERLUDE
CHORUS
BRIDGE
CHORUS
BRIDGE
            
Submit corrections

comments powered by Disqus
↑ Back to top | Oomph! Tabs for Gekreuzigt. Lyrics for acoustic guitar and electric guitar. Tablatures and chords are parodies/interpretations of the original songs. You may use it for private study, scholarship, research or language learning purposes only