>
 >
Fur Immer

Fur Immer Guitar Tabs

Oomph! - Fur Immer chords, tabs, tablatures, lyrics

Guitar lessons | Add/correct | Request | Top 50 tabs Artists:  A B C D E F G H I J K L M N O P Q R S T U V W X Y Z 0-9

Fur Immer Guitar Tabs – Oomph!

CD, Sheet music, Poster

Do you like Fur Immer? Share with your friends now
Tabs
-----------------------------------------------------------------------------
-----------------------------------------------------------------------------

Tuning: Standart


e|----------------------------------------------------------------------|
B|----------------------------------------------------------------------|
G|----------------------------------------------------------------------|
D|---12-12--12-12--12-12------------5-5--5-5--5-5/8\7-------------------| x3
A|---10-10--10-10--10-10------------3-3--3-3--3-3/6\5-------------------|
E|---10-10--10-10--10-10--11-10-11--3-3--3-3--3-3/6\5-------------------|

e|--------------------------------------------------------------------------|
B|--------------------------------------------------------------------------|
G|--------------------------------------------------------------------------|
D|---8-8--8-8--8-8--8/10/12-12--12-12--12-12--12\10-------------------------|
A|---8-8--8-8--8-8--8/10/12-12--12-12--12-12--12\10-------------------------|
E|---6-6--6-6--6-6--6-/8/10-10--10-10--10-10--10\8--------------------------|

e|--------------------------------------------------------------------------|
B|--------------------------------------------------------------------------|
G|-5/8----------------------------------------------------------------------|
D|-5/8----12-12--12-12--12-12------------5-5--5-5--5-5/8\7------------------|
A|-3/6----10-10--10-10--10-10------------3-3--3-3--3-3/6\5------------------|
E|--------10-10--10-10--10-10--11-10-11--3-3--3-3--3-3/6\5------------------|

e|----------------------------------------------------------------------|
B|----------------------------------------------------------------------|
G|----------------------------------------------------------------------|
D|---12-12--12-12--12-12------------5-5--5-5--5-5/8\7-------------------| x2
A|---10-10--10-10--10-10------------3-3--3-3--3-3/6\5-------------------|
E|---10-10--10-10--10-10--11-10-11--3-3--3-3--3-3/6\5-------------------|

e|--------------------------------------------------------------------------|
B|--------------------------------------------------------------------------|
G|--------------------------------------------------------------------------|
D|---8-8--8-8--8-8--8/10/12-12--12-12--12-12--12\10-------------------------|
A|---8-8--8-8--8-8--8/10/12-12--12-12--12-12--12\10-------------------------|
E|---6-6--6-6--6-6--6-/8/10-10--10-10--10-10--10\8--------------------------|

e|--------------------------------------------------------------------------|
B|--------------------------------------------------------------------------|
G|-5/8----------------------------------------------------------------------|
D|-5/8----12-12--12-12--12-12------------5-5--5-5--5-5/8\7------------------|
A|-3/6----10-10--10-10--10-10------------3-3--3-3--3-3/6\5------------------|
E|--------10-10--10-10--10-10--11-10-11--3-3--3-3--3-3/6\5------------------|

e|----------------------------------------------------------------------|
B|----------------------------------------------------------------------|
G|----------------------------------------------------------------------|
D|---12-12--12-12--12-12------------5-5--5-5--5-5/8\7-------------------| x2
A|---10-10--10-10--10-10------------3-3--3-3--3-3/6\5-------------------|
E|---10-10--10-10--10-10--11-10-11--3-3--3-3--3-3/6\5-------------------|

e|--------------------------------------------------------------------------|
B|--------------------------------------------------------------------------|
G|--------------------------------------------------------------------------|
D|---8-8--8-8--8-8--8/10/12-12--12-12--12-12--12\10-------------------------|
A|---8-8--8-8--8-8--8/10/12-12--12-12--12-12--12\10-------------------------|
E|---6-6--6-6--6-6--6-/8/10-10--10-10--10-10--10\8--------------------------|


e|----------------------------------------------------------------------|
B|----------------------------------------------------------------------|
G|----------------------------------------------------------------------|
D|--10--12-12--7-8-8--8-7-----------------------------------------------| x7
A|---8--10-10--5-6-6--6-5-----------------------------------------------|
E|---8--10-10--5-6-6----------------------------------------------------|

e|--------------------------------------------------------------------------|
B|--------------------------------------------------------------------------|
G|--------------------------------------------------------------------------|
D|--10--12-12--7-8-8--8-7---------------------------------------------------|
A|---8--10-10--5-6-6--6-5---------------------------------------------------|
E|---8--10-10--5-6-6--6-5---------------------------------------------------|

e|-------------------------------------------------------------------|
B|-------------------------------------------------------------------|
G|-------------------------------------------------------------------|
D|---12-12--12-12--12-12------------5-5--5-5--5-5/8\7----------------| x3
A|---10-10--10-10--10-10------------3-3--3-3--3-3/6\5----------------|
E|---10-10--10-10--10-10--11-10-11--3-3--3-3--3-3/6\5----------------|
                                                                           X2
e|-------------------------------------------------------------------|
B|-------------------------------------------------------------------|
G|-------------------------------------------------------------------|
D|---8-8--8-8--8-8--8/10/12-12--12-12--12-12--12\10------------------|
A|---8-8--8-8--8-8--8/10/12-12--12-12--12-12--12\10------------------|
E|---6-6--6-6--6-6--6-/8/10-10--10-10--10-10--10\8-------------------|

e|----------------------------------------------------------------------|
B|----------------------------------------------------------------------|
G|----------------------------------------------------------------------|
D|--10--12-12--7-8-8--8-7-----------------------------------------------| x7
A|---8--10-10--5-6-6--6-5-----------------------------------------------|
E|---8--10-10--5-6-6----------------------------------------------------|

e|--------------------------------------------------------------------------|
B|--------------------------------------------------------------------------|
G|--------------------------------------------------------------------------|
D|--10--12-12--7-8-8--------------------------------------------------------|
A|---8--10-10--5-6-6--------------------------------------------------------|
E|---8--10-10--5-6-6--------------------------------------------------------|

************************************

| /   slide up
| \   slide down

************************************





Comments


Popular Oomph! tabs & chords
Brennende Liebe Bass Tabs
Gott Ist Ein Popstar Bass Tabs
Das Letzte Streichholz Chords
Gott Ist Ein Popstar Chords
Burn Your Eyes Tabs
Das Letzte Streichholz 1 Tabs
Dein Weg Tabs
Ich Will Dich Nie Mehr Sehn Tabs
Nothing Is Real Tabs
Transformation Tabs


Song lyrics



↑ Back to top | Tablatures and chords are parodies/interpretations of the original songs. You may use it for private study, scholarship, research or language learning purposes only
© 2014 AZChords.com Contact us | Privacy policy | DMCA | Add/correct tabs | Request tabs | Top 50 tabs