» » »

Oomph!, Diesmal Wirst Du Sehn Tabs (ver.1)

Artists:  A B C D E F G H I J K L M N O P Q R S T U V W X Y Z # 

Diesmal Wirst Du Sehn Tabs (ver.1)

Oomph! Tabs
 Rating:
4/5 (4 votes)
Diesmal Wirst Du Sehn lessons Tabs too difficult? Try these video lessons and learn fast
1
                Oomph! - Diesmal wirst du sehn

4/4     |       Drop C#

Intro (1x)
D#|--------------------------------|
A#|--------------------------------|
F#|--------------------------------|
C#|----------------7-8-7-5-7-8-7-5-|
G#|----------------7-8-7-5-7-8-7-5-|
C#|--------------------------------|

Chorus & Main Riff (x2)
D#|--------------------------------|--------------------------------|
A#|--------------------------------|--------------------------------|
F#|--------------------------------|--------------------------------|
C#|0-------0-------0-0-0-0-0---0-0-|8-------8-------7-8-7-5-7-8-7-5-|
G#|0-------0-------0-0-0-0-0---0-0-|8-------8-------7-8-7-5-7-8-7-5-|
C#|0-------0-------0-0-0-0-0---0-0-|8-------8-----------------------|

D#|--------------------------------|--------------------------------|
A#|--------------------------------|--------------------------------|
F#|--------------------------------|--------------------------------|
C#|5-------5-------7-8-7-5-7-8-7-5-|5-------5-------0-0-0-0-0---0-0-|
G#|5-------5-------7-8-7-5-7-8-7-5-|5-------5-------0-0-0-0-0---0-0-|
C#|5-------5-----------------------|5-------5-------0-0-0-0-0---0-0-|

Verse Part 1(2x)
D#|----------------|----------------|
A#|----------------|----------------|
F#|----------------|----------------|
C#|7-7-7-7-7-7-7-7-|7-7-7-7-7-7-7-7-|
G#|7-7-7-7-7-7-7-7-|7-7-7-7-7-7-7-7-|
C#|7-7-7-7-7-7-7-7-|7-7-7-7-7-7-7-7-|

D#|- -- -- -- -- -- -- -- -|- -- -- -- -- -- -- -- -|
A#|- -- -- -- -- -- -- -- -|- -- -- -- -- -- -- -- -|
F#|- -- -- -- -- -- -- -- -|- -- -- -- -- -- -- -- -|
C#|12-12-12-12-12-12-12-12-|10-10-10-10-10-10-10-10-|
G#|12-12-12-12-12-12-12-12-|10-10-10-10-10-10-10-10-|
C#|12-12-12-12-12-12-12-12-|10-10-10-10-10-10-10-10-|

Verse Part 2 (1x)
D#|----------------|- -- -- -- -- -- -- -- -|
A#|----------------|- -- -- -- -- -- -- -- -|
F#|----------------|- -- -- -- -- -- -- -- -|
C#|----------------|- -- -- -- -- -- -- -- -|
G#|8-8-8-8-5-5-5-5-|12-12-12-12-10-10-10-10-|
C#|8-8-8-8-8-8-8-8-|10-10-10-10-10-10-10-10-|

D#|- -- -- -- -- -- -- -- -|- -- -- -- -- -- -- -- -|
A#|- -- -- -- -- -- -- -- -|- -- -- -- -- -- -- -- -|
F#|- -- -- -- -- -- -- -- -|- -- -- -- -- -- -- -- -|
C#|- -- -- -- -- -- -- -- -|- -- -- -- -- -- -- -- -|
G#|13-13-13-13-12-12-12-12-|12-12-12-12-10-10-10-10-|
C#|12-12-12-12-12-12-12-12-|10-10-10-10-10-10-10-10-|

D#|----------------|----------------|----------------|----------------|
A#|----------------|----------------|----------------|----------------|
F#|----------------|----------------|----------------|----------------|
C#|----------------|----------------|----------------|5---------------|
G#|8-8-8-8-8-8-8-8-|7-7-7-7-7-7-7-7-|5-5-5-5-5-5-5-5-|5---------------|
C#|8-8-8-8-8-8-8-8-|7-7-7-7-7-7-7-7-|5-5-5-5-5-5-5-5-|5---------------|

Pre-Chorus (1x)
D#|----------------|----------------|----------------|----------------|
A#|----------------|----------------|----------------|----------------|
F#|----------------|----------------|----------------|----------------|
C#|7-7-7-7-7-7-7-7-|7-7-7-7-7-7-7-7-|1-1-1-1-1-1-1-1-|5-5-5-5-5-5-5-5-|
G#|7-7-7-7-7-7-7-7-|7-7-7-7-7-7-7-7-|1-1-1-1-1-1-1-1-|5-5-5-5-5-5-5-5-|
C#|7-7-7-7-7-7-7-7-|7-7-7-7-7-7-7-7-|1-1-1-1-1-1-1-1-|5-5-5-5-5-5-5-5-|

D#|----------------|----------------|- -- -- -- -- -- -- -- -|----------------|
A#|----------------|----------------|- -- -- -- -- -- -- -- -|----------------|
F#|----------------|----------------|- -- -- -- -- -- -- -- -|----------------|
C#|7-7-7-7-7-7-7-7-|7-7-7-7-7-7-7-7-|12-12-12-12-12-12-12-12-|3-3-3-3-3-3-3-3-|
G#|7-7-7-7-7-7-7-7-|7-7-7-7-7-7-7-7-|12-12-12-12-12-12-12-12-|3-3-3-3-3-3-3-3-|
C#|7-7-7-7-7-7-7-7-|7-7-7-7-7-7-7-7-|12-12-12-12-12-12-12-12-|3-3-3-3-3-3-3-3-|

D#|----------------|--------------------------------|
A#|----------------|--------------------------------|
F#|----------------|--------------------------------|
C#|5-5-5-5-5-5-5-5-|5---------------7-8-7-5-7-8-7-5-|
G#|5-5-5-5-5-5-5-5-|5---------------7-8-7-5-7-8-7-5-|
C#|5-5-5-5-5-5-5-5-|5-------------------------------|

Now Play:

>Chorus (2x)

>Verse Part 1 (2x)

>Verse Part 2 (1x)

>Pre-Chorus (1x)

>Chorus (4x)

>Then let ring out with this Power-Chord:

D#|----------------|
A#|----------------|
F#|----------------|
C#|7---------------|
G#|7---------------|
C#|7---------------|
            
Submit corrections

comments powered by Disqus
↑ Back to top | Oomph! Tabs for Diesmal Wirst Du Sehn. Lyrics for acoustic guitar and electric guitar. 1 Tablatures and chords are parodies/interpretations of the original songs. You may use it for private study, scholarship, research or language learning purposes only