» » »

Dein Feuer Tabs (ver.1)

Artists:  A B C D E F G H I J K L M N O P Q R S T U V W X Y Z # 

Dein Feuer Tabs (ver.1)

Oomph!
Rating:
0/5 (0 votes)

Hard to play? Try these video lessons and learn fast.
                Intro

Guitar One
B |------------------------------------------------------|
F#|------------------------------------------------------|
D |--4-4-4-4-4-6-----------------------------------------|
A |--4-4-4-4-4-6--4-4-4-4-4-7--5-5-5-5-5-4--2-2-2-2-2-4--|
E |--2-2-2-2-2-4--4-4-4-4-4-7--5-5-5-5-5-4--2-2-2-2-2-4--|x2
A |---------------4-4-4-4-4-7--5-5-5-5-5-4--2-2-2-2-2-4--|

Guitar Two (Second Time)
B |------------------------------------|
F#|----19------------------------------|
D |-------19-17---19-20---19-----------|
A |---------------------------18-17----|
E |------------------------------------|
A |------------------------------------|

Verse (tacet)

Pre Chorus:
B |-----------------------------------------------------------------|
F#|-----------------------------------------------------------------|
D |---------------------------------7-77-77-7-5-5-5-7-77-77-7-5-5-5-|
A |-7-77-77-7-8-8-8-5-55-55-5-4-4-4-7-77-77-7-5-5-5-7-77-77-7-5-5-5-|
E |-7-77-77-7-8-8-8-5-55-55-5-4-4-4-5-55-55-5-3-3-3-5-55-55-5-3-3-3-|
A |-7-77-77-7-8-8-8-5-55-55-5-4-4-4---------------------------------|

B |-----------------------------------------------------------------|
F#|-----------------------------------------------------------------|
D |---------------------------------7-77-77-7-5-5-5-----------------|
A |-7-77-77-7-8-8-8-5-55-55-5-4-4-4-7-77-77-7-5-5-5-----------------|
E |-7-77-77-7-8-8-8-5-55-55-5-4-4-4-5-55-55-5-3-3-3-----------------|
A |-7-77-77-7-8-8-8-5-55-55-5-4-4-4---------------------------------|

Chorus:

guitar one
B |------------------------------------------------------|
F#|------------------------------------------------------|
D |--4-4-4-4-4-6-----------------------------------------|
A |--4-4-4-4-4-6--4-4-4-4-4-7--5-5-5-5-5-4--2-2-2-2-2-4--|
E |--2-2-2-2-2-4--4-4-4-4-4-7--5-5-5-5-5-4--2-2-2-2-2-4--|x3
A |---------------4-4-4-4-4-7--5-5-5-5-5-4--2-2-2-2-2-4--|

Guitar two (third time only)
B |------------------------------------|
F#|----19------------------------------|
D |-------19-17---19-20---19-----------|
A |---------------------------18-17----|
E |------------------------------------|
A |------------------------------------|

Verse (tacet)

Pre Chorus:
B |-----------------------------------------------------------------|
F#|-----------------------------------------------------------------|
D |---------------------------------7-77-77-7-5-5-5-7-77-77-7-5-5-5-|
A |-7-77-77-7-8-8-8-5-55-55-5-4-4-4-7-77-77-7-5-5-5-7-77-77-7-5-5-5-|
E |-7-77-77-7-8-8-8-5-55-55-5-4-4-4-5-55-55-5-3-3-3-5-55-55-5-3-3-3-|
A |-7-77-77-7-8-8-8-5-55-55-5-4-4-4---------------------------------|

B |-----------------------------------------------------------------|
F#|-----------------------------------------------------------------|
D |---------------------------------7-77-77-7-5-5-5-----------------|
A |-7-77-77-7-8-8-8-5-55-55-5-4-4-4-7-77-77-7-5-5-5-----------------|
E |-7-77-77-7-8-8-8-5-55-55-5-4-4-4-5-55-55-5-3-3-3-----------------|
A |-7-77-77-7-8-8-8-5-55-55-5-4-4-4---------------------------------|


chorus
B |------------------------------------------------------|
F#|------------------------------------------------------|
D |--4-4-4-4-4-6-----------------------------------------|
A |--4-4-4-4-4-6--4-4-4-4-4-7--5-5-5-5-5-4--2-2-2-2-2-4--|
E |--2-2-2-2-2-4--4-4-4-4-4-7--5-5-5-5-5-4--2-2-2-2-2-4--|x4
A |---------------4-4-4-4-4-7--5-5-5-5-5-4--2-2-2-2-2-4--|

Bridge (just before chorus)
B |-----------|
F#|-----------|
D |-----------|
A |------7----|
E |--5h7------|
A |-----------|

Chorus
B |------------------------------------------------------|
F#|------------------------------------------------------|
D |--4-4-4-4-4-6-----------------------------------------|
A |--4-4-4-4-4-6--4-4-4-4-4-7--5-5-5-5-5-4--2-2-2-2-2-4--|
E |--2-2-2-2-2-4--4-4-4-4-4-7--5-5-5-5-5-4--2-2-2-2-2-4--|x3
A |---------------4-4-4-4-4-7--5-5-5-5-5-4--2-2-2-2-2-4--|

B |------------------------------------------------------|
F#|------------------------------------------------------|
D |--4-4-4-4-4-6-----------------------------------------|
A |--4-4-4-4-4-6--4-4-4-4-4-7--5-5-5-5-5-4---------------|
E |--2-2-2-2-2-4--4-4-4-4-4-7--5-5-5-5-5-4---------------|
A |---------------4-4-4-4-4-7--5-5-5-5-5-4---------------|

B |------------------------------------------------------|
F#|------------------------------------------------------|
D |--4-4-4-4-4-6-----------------------------------------|
A |--4-4-4-4-4-6--4-4-4-4-4-7--5-5-5-5-5-4--2-2-2-2-2-4--|
E |--2-2-2-2-2-4--4-4-4-4-4-7--5-5-5-5-5-4--2-2-2-2-2-4--|
A |---------------4-4-4-4-4-7--5-5-5-5-5-4--2-2-2-2-2-4--|

B |------------------------------------------------------|
F#|------------------------------------------------------|
D |--4-4-4-4-4-6-----------------------------------------|
A |--4-4-4-4-4-6--4-4-4-4-4-7--5-5-5-5-5-4---------------|
E |--2-2-2-2-2-4--4-4-4-4-4-7--5-5-5-5-5-4---------------|
A |---------------4-4-4-4-4-7--5-5-5-5-5-4---------------|
            
Hard to play? Try these video lessons and learn fast. | Correct




comments powered by Disqus
↑ Back to top | Tablatures and chords are parodies/interpretations of the original songs. You may use it for private study, scholarship, research or language learning purposes only