» » »

Meaning In The Static Bass tabs (ver.1)

Artists:  A B C D E F G H I J K L M N O P Q R S T U V W X Y Z # 

Meaning In The Static Bass tabs (ver.1)

On The Last Day
Rating:
0/5 (0 votes)

Hard to play? Try these video lessons and learn fast.
                Tuning: Standard


|---------------------------------------------------------------------|
|---------------------------------------------------------------------|
|------------------7-77-777-777-777-5-55-555-555-555-5-55-555-555-555-|
|-0-00-000-000-000----------------------------------------------------|

|---------------------------------------------------------------------|
|---------------------------------------------------------------------|
|-----------------------------------0-00-000-000-000-2-22-2225-55-555-|
|-0-00-000-000-000-3-33-333-333-333-----------------------------------|


|--------------------------------------------------------------------|
|--------------------------------------------------------------------|
|----------------------------------0-00000000000000-2-22-2225-55-555-|
|0-00000000000000-3-33333333333333-----------------------------------|x4


|---------------------------------------------------------------------|
|---------------------------------------------------------------------|
|------------------7-77-777-777-777-5-55-555-555-555-5-55-555-555-555-|
|-0-00-000-000-000----------------------------------------------------|

|---------------------------------------------------------------------|
|---------------------------------------------------------------------|
|-----------------------------------0-00-000-000-000-2-22-2225-55-555-|
|-0-00-000-000-000-3-33-333-333-333-----------------------------------|


|--------------------------------------------------------------------|
|--------------------------------------------------------------------|
|----------------------------------0-00000000000000-2-22-2225-55-555-|
|0-00000000000000-3-33333333333333-----------------------------------|x4


|---------------------------------------------------------------------|
|---------------------------------------------------------------------|
|------------------7-77-777-777-777-5-55-555-555-555-5-55-555-555-555-|
|-0-00-000-000-000----------------------------------------------------|
                                                                        x2
|---------------------------------------------------------------------|
|---------------------------------------------------------------------|
|-----------------------------------0-00-000-000-000-2-22-2225-55-555-|
|-0-00-000-000-000-3-33-333-333-333-----------------------------------|


*Just play open E's with the guitars, I don't know the exact rhythm.
|--------------------------------------------------------|
|--------------------------------------------------------|
|--------------------------------------------------------|
|---------------00-000-000-0-0-00-000-000-0-0-00-000-000-|


|--------|
|--------|
|--------|
|-0~-----|


|---------------------------------------------------------------------|
|---------------------------------------------------------------------|
|------------------7-77-777-777-777-5-55-555-555-555-5-55-555-555-555-|
|-0-00-000-000-000----------------------------------------------------|
                                                                        x2
|---------------------------------------------------------------------|
|---------------------------------------------------------------------|
|-----------------------------------0-00-000-000-000-2-22-2225-55-555-|
|-0-00-000-000-000-3-33-333-333-333-----------------------------------|


|-------------------------------------------------------|
|-------------------------------------------------------|
|-------------------------------------------------------|
|-0-0-000x-000x-0-0-000x-000x-0-0-000x-000x-0-0-000x-0x-|
            
Hard to play? Try these video lessons and learn fast. | Correct




comments powered by Disqus
↑ Back to top | Tablatures and chords are parodies/interpretations of the original songs. You may use it for private study, scholarship, research or language learning purposes only