>
 >
Below One Hundred

Below One Hundred Guitar Tabs

On The Last Day - Below One Hundred chords, tabs, tablatures, lyrics

Guitar lessons | Add/correct | Request | Top 50 tabs Artists:  A B C D E F G H I J K L M N O P Q R S T U V W X Y Z 0-9

Below One Hundred Guitar Tabs – On The Last Day

CD, Sheet music, Poster

Do you like Below One Hundred? Share with your friends now
Tabs
this is my first tab but i think this is 100%    only lead guitar

d-------------------------------------------------]
a-------------------------------------------------]
d-------------------------------------------------]
g--------77---------77---------77--------------77-]
b----------55-66------55-66------55-66-88-66-55---]
e------55---------55---------55-------------------]

d-----------------------------------------]
a-----------------------------------------]
d-----------------------------------------]
g-----------77--------77--------77--------]
d------66-55--55-66-55--55-66-55--55-66-88]
e-----------------------------------------]

d------0----0-00000-0-00000-0-0000000000]
a------0----0-00000-0-00000-0-0000000000]
d---------------------------------------]
g---------------------------------------]
b---------------------------------------] 
e---------------------------------------]            \
                                                      These two x2
d------8-8888888888-7-7777-77777-]                   /
a------8-8888888888-7-7777777777-]
d--------------------------------]
g--------------------------------]
b--------------------------------]
e--------------------------------]

d------00000000-88888888-00000000-55555555-]
a------00000000-88888888-00000000-55555555-]
d------------------------------------------]
g------------------------------------------]        x2
b------------------------------------------]
e------------------------------------------]

d------0----0-00000-0-00000-0-0000000000]
a------0----0-00000-0-00000-0-0000000000]
d---------------------------------------]
g---------------------------------------]
b---------------------------------------] 
e---------------------------------------]        \
                                                  x2
d------8-88888-8-88888-7-77777-7-77777-]         /    
a------8-88888-8-88888-7-77777-7-77777-]
d--------------------------------------]
g--------------------------------------]
b--------------------------------------]
e--------------------------------------]


d------0000000000000000-88888888-77777777-]
a------0000000000000000-88888888-77777777-]
d-----------------------------------------]
g-----------------------------------------]  x2
b-----------------------------------------]
e-----------------------------------------]


d------00000000-88888888-00000000-55555555-]
a------00000000-88888888-00000000-55555555-]
d------------------------------------------]
g------------------------------------------]        x2
b------------------------------------------]
e------------------------------------------]

d-------------------------------------------------]
a-------------------------------------------------]
d-------------------------------------------------]
g--------77---------77---------77--------------77-]
b----------55-66------55-66------55-66-88-66-55---]
e------55---------55---------55-------------------]   \
                                                       x5
d-----------------------------------------]           /
a-----------------------------------------]
d-----------------------------------------]
g-----------77--------77--------77--------]
d------66-55--55-66-55--55-66-55--55-66-88]
e-----------------------------------------]

d---------------------------------------------------]
a---------------------------------------------------]
d---------------------------------------------------]
g-------7---7---7---7-------7----7------7--------7--]   x2
b--------5---5---5---5---6-5--6-5---6-5---5--6-5---5]
e------5---5---5---5--------------------------------]

d--------------------------------------------------]
a--------------------------------------------------]
d--------------------------------------------------]
g--------7-----7-----7-----7-----7-----7-----7-----]
b----------5-----5-----5-----5-----5-----5-----5---]
e------5-----5-----5-----5-----5-----5-----5-----5h]


d------00000000-88888888-00000000-55555555-]
a------00000000-88888888-00000000-55555555-]
d------------------------------------------]
g------------------------------------------]        x2
b------------------------------------------]
e------------------------------------------]

d-------------------------------------------------]
a-------------------------------------------------]
d-------------------------------------------------]
g--------77---------77---------77--------------77-]
b----------55-66------55-66------55-66-88-66-55---]
e------55---------55---------55-------------------]   \
                                                       x5
d-----------------------------------------]           /
a-----------------------------------------]
d-----------------------------------------]
g-----------77--------77--------77--------]
d------66-55--55-66-55--55-66-55--55-66-88]
e-----------------------------------------]

d---------------------------------------------------]
a---------------------------------------------------]
d---------------------------------------------------]
g-------7---7---7---7-------7----7------7--------7--]   x2
b--------5---5---5---5---6-5--6-5---6-5---5--6-5---5]
e------5---5---5---5--------------------------------]

d--------------------------------------------------]
a--------------------------------------------------]
d--------------------------------------------------]
g--------7-----7-----7-----7-----7-----7-----7-----]
b----------5-----5-----5-----5-----5-----5-----5---]
e------5-----5-----5-----5-----5-----5-----5-----5h]

finish!
hope you liked it !

h=hold





Comments


Popular On The Last Day tabs & chords
Meaning In The Static Bass Tabs
Below One Hundred Intro Tabs
Leaving The Citadel Tabs
Leaving The Citadel 1 Tabs
Meaning In The Static Tabs
Missing Frames Tabs
So Here Is Us, On The Raggedy Edge Tabs


Song lyrics



↑ Back to top | Tablatures and chords are parodies/interpretations of the original songs. You may use it for private study, scholarship, research or language learning purposes only
© 2014 AZChords.com Contact us | Privacy policy | DMCA | Add/correct tabs | Request tabs | Top 50 tabs