>
 >
Angels Of Death

Angels Of Death Guitar Tabs

Onslaught - Angels Of Death chords, tabs, tablatures, lyrics

Guitar lessons | Add/correct | Request | Top 50 tabs Artists:  A B C D E F G H I J K L M N O P Q R S T U V W X Y Z 0-9

Angels Of Death Guitar Tabs – Onslaught

CD, Sheet music, Poster

Do you like Angels Of Death? Share with your friends now
Tabs
Band:  Onslaught

Copyright (c)  (Under One Flag) (1987)
Version 1.0 - (20/04/06)




.  - palm mute           /  - slide up to
\  - slide down to       ~  - vibrato
h  - hammer on           b  - Bend
p  - pull off            Suffixes for bend
t  - tap                 f  - full bend    h - half bend
ph - pinched harmonic    q  - quarter bend t - tap bend
*  - see comment         ^  - Hold bend    r release bend
x  - Stuccatto           ~  - vibrato bend
,  - slight palm mute    () - ghost note, sustained note
"  - tremolo note        <> - harmonic

Tunning E A D G B E
 
  Intro
 
 [-PM-] [-PM-] [-PM-] [-PM-]
E------------------------------|
B------------------------------|
G------------------------------|
D------2------5------8------7--|
A------0------3------6------5--|
E-0000---0000---0000---0000----| Rpt

  Guitar 1
  [-PM-] [-PM-] [-PM-] [-PM-]
E[------------------------------|
B[------------------------------|
G[------------------------------|
D[------2------5------8------7--|
A[------0------3------6------5--|
E[-0000---0000---0000---0000----|
 [Guitar 2
E[------------------------------|
B[------------------------------|
G[------------------------------|
D[------------------------------|
A[------7\----------------------|
E[------5\----------------------| Rpt 3 X

 Guitar 1
  [-PM-] [-PM-] [-PM-] [-PM-]
E[------------------------------|
B[------------------------------|
G[------------------------------|
D[------2------5------8------7--|
A[------0------3------6------5--|
E[-0000---0000---0000---0000----|
 [Guitar 2        Pick scrape
E[------------------------------|
B[------------------------------|
G[------------------------------|
D[---------------------\-\------|
A[------7\--------------\-\-----|
E[------5\----------------------|

 Main Riff

 [-PM-] [-PM-] [-PM-] [-PM-]
E------------------------------|
B------------------------------|
G------------------------------|
D------2------5------8------7--|
A------0------3------6------5--|
E-0000---0000---0000---0000----| Rpt 7

 [-PM-] [-PM-] [-PM-] 
E--------------------------|
B--------------------------|
G--------------------------|
D------2------5------8-\4--|
A------0------3------6-\2--|
E-0000---0000---0000-------|

 Chorus

      [PM]    [PM]    [PM]    [PM]   [PM]    [PM]    [PM]    [PM]
E-----------------------------------------------------------------|
B-----------------------------------------------------------------|
G-----------------------------------------------------------------|
D-2-2-----2-2-----3-3-----5-5-----2-2-----2-2-----3-3-----5-5-----|
A-0-0-----0-0-----1-1-----3-3-----0-0-----0-0-----1-1-----1-1-----|
E-----000-----000-----000-----000-----000-----000-----000-----000-| Rpt

 Rpt intro
 Rpt Main Riff 7 X


  with wah

E-15-17p15-17p15-12----------------------------------------------|
B-------------------15-12-12-15p12----------12-------------------|
G----------------------------------14-12-14----------------------|
D----------------------------------------------12-13-14-12-13-14-|
A----------------------------------------------------------------|
E----------------------------------------------------------------|

E-----------------------|
B-------15-17p15-17b--\-|
G-14-14-----------------|
D-----------------------|
A-----------------------|
E-----------------------|


 [-PM-] [-PM-] [-PM-] 
E--------------------------|
B--------------------------|
G--------------------------|
D------2------5------8-\4--|
A------0------3------6-\2--|
E-0000---0000---0000-------|

 Chorus

      [PM]    [PM]    [PM]    [PM]   [PM]    [PM]    [PM]    [PM]
E-----------------------------------------------------------------|
B-----------------------------------------------------------------|
G-----------------------------------------------------------------|
D-2-2-----2-2-----3-3-----5-5-----2-2-----2-2-----3-3-----5-5-----|
A-0-0-----0-0-----1-1-----3-3-----0-0-----0-0-----1-1-----1-1-----|
E-----000-----000-----000-----000-----000-----000-----000-----000-| Rpt


 Interlude

  Guitar 1
   [---------PM----------]         [-------PM-----]
E[------------------------------------------------------------------|
B[------------------------------------------------------------------|
G[------------------------------------------------------------------|
D[------------------------------------------------------------------|
A[-2-2-2-2-2-2-2-2-2-2-2-2-3-2-----2-2-2-2-2-2-2-2-3-2-----3-2------|
E[-0-0-0-0-0-0-0-0-0-0-0-0-----3-2-0-0-0-0-0-0-0-0-----3-2-----3-2--|
 [Guitar 2
 [ [---------------------PM-----------------------] 
E[------------------------------------------------------------------|
B[------------------------------------------------------------------|
G[-------------------------------------------------5-4--------------|
D[-----------------------------------------------------5-4----------|
A[-2-2-2-2-2-2-2-2-2-2-2-2-2-2-2-2-2-2-2-2-2-2-2-2---------3-2------|
E[-0-0-0-0-0-0-0-0-0-0-0-0-0-0-0-0-0-0-0-0-0-0-0-0-------------3-2--|


  Guitar 1
   [---------PM----------]         [-------PM-----]
E[------------------------------------------------------------------|
B[------------------------------------------------------------------|
G[------------------------------------------------------------------|
D[------------------------------------------------------------------|
A[-2-2-2-2-2-2-2-2-2-2-2-2-3-2-----2-2-2-2-2-2-2-2-3-2-----3-2------|
E[-0-0-0-0-0-0-0-0-0-0-0-0-----3-2-0-0-0-0-0-0-0-0-----3-2-----3-2--|
 [Guitar 2
 [ [---------PM----------]         [-------PM-----]  
E[------------------------------------------------------------------|
B[------------------------------------------------------------------|
G[-------------------------------------------------5-4--------------|
D[-----------------------------------------------------5-4----------|
A[-2-2-2-2-2-2-2-2-2-2-2-2-3-2-----2-2-2-2-2-2-2-2---------3-2------|
E[-0-0-0-0-0-0-0-0-0-0-0-0-----3-2-0-0-0-0-0-0-0-0-------------3-2--|
                                                           Rpt 5 X

 Rpt Intro
 
 2nd guitar solo

      h PM      h        h         h
E------------------------------10-12p10-12-15-12-17b-------r1717b-\-|
B-----------------8---10-13p10--------------------------------------|
G-------5-7/9p7-9---9-----------------------------------------------|
D-7p5-7-------------------------------------------------------------|
A-------------------------------------------------------------------|
E-------------------------------------------------------------------|

                                         ~~~~~~~~~~~~
E----------------------------------------------------|
B-8-10p8---8-----------------------------------------|
G--------9---9-7-------0-2p0-2p0-2p0-2p0-2-----------|
D----------------9-8-7-------------------------------|
A----------------------------------------------------|
E----------------------------------------------------|

   ~~~~~~~~~~~~~~~       ~~~~~~~~~~~~~~~~~~~~
E-15fb------------rx-----------------------------|
B-------------------x12-15b-------15fb-------r\--|
G------------------------------------------------|
D------------------------------------------------|
A------------------------------------------------|
E------------------------------------------------|

 Rpt Verse
 Rpt Chorus
 Rpt Main Riff 4 X
 Rpt Verse
 Rpt Chorus

 Guitar 1
  [-PM-] [-PM-] [-PM-] [-PM-] [-PM-]
E[-------------------------------------|
B[-------------------------------------|
G[-------------------------------------|
D[------2------5------8------7------2--|
A[------0------3------6------5------0--|
E[-0000---0000---0000---0000---0000----|
 [Guitar 2
E[-------------------------------------|
B[-------------------------------------|
G[-------------------------------------|
D[-------------------------------------|
A[------7\--------------------------7\-|
E[------5\--------------------------5\-| 




END





Comments


Popular Onslaught tabs & chords
Burn Intro Tabs
Burn Intro 1 Tabs
Damnation-Onslaught Tabs
Killing Peace 1 Tabs
Let There Be Death Tabs
Metal Forces Tabs
Power From Hell Tabs
Steel Meets Steel Tabs
Thermonuclear Devastation Tabs
Witch Hunt Tabs


Song lyrics



↑ Back to top | Tablatures and chords are parodies/interpretations of the original songs. You may use it for private study, scholarship, research or language learning purposes only
© 2014 AZChords.com Contact us | Privacy policy | DMCA | Add/correct tabs | Request tabs | Top 50 tabs