» » »

Someone Who Cares Tabs (ver.1)

Artists:  A B C D E F G H I J K L M N O P Q R S T U V W X Y Z # 

Someone Who Cares Tabs (ver.1)

Only Ones
Rating:
5/5 (6 votes)

Hard to play? Try these video lessons and learn fast.
                Intro (Riff A)
  D Dsus4 D    Dsus4 D D   G           A(9)A(4)A
|-2--3----2-|--3-3-3-2-----3-3-3--3-3--0-0-0-0-0--|
|-3--3----3-|--3-3-3-3-3---3-3-3--3-3--2-0-2-3-2--|
|-2--2----3-|--2-2-2-2-2---0-0-0--0-0--2-2-2-2-2--|
|-0--0----0-|--0-0-0---0---0-0-0--0-0--2-2-2-2----|  (x 2)
|-----------|--------------x--------x--0-0--------|
|-----------|--------------3--------3-------------|

Verse 1
(With Riff A)

D  Dsus4 D    Dsus4  D     G        A      D  Dsus4 D
If you   try, to follow me home, to-night, you will find
Dsus4      D           G        A (end riff A) G      A
Everything that you've heard is ri-ig-ight,    you'll never return
D               G (with Riff B) A           D  Dsus4 D
To the home you knew,  leave it all behind, it's up to you

(Riff B)
(|-3--3-3-------3-3------3--3---3-3-3--|)
(|-3--3-3-------3-3------3--3---3-3-3--|)
(|-0--0-0-------0-0------0--0---0-0-0--|)
(|-0--0---------0--------0--0---0-0-0--|)
(|-x---------x---------x--------x-x-x--|)
(|-3-------2h3-------2h3--------3-3-3--|)


Chorus

D               G          A    D  Dsus4 D
Who wants to be happy for ever, up to    you                 
D                  G             A        (gliss)
You know that fate brought us to-gether
G        A                 D              G (with Riff C)
And when time has left you too weak to resist

(Riff C)
(|-3--------------3-3-3--3-3--|)
(|----------------------------|)
(|----0-----------------------|)
(|-0----4-2-0-----0-0-0--0-0--|)
(|-x----------1h2-x--------x--|) (or possibly a bend to pitch or slide 1 ~ 2)
(|-3--------------3--------3--|)

G     A                D Dsus4 D (with Riff A)
I     hope you will re-member this

Dsus4 D D   G           A(9)A(4)A
            (with Riff D)
(Riff D)
(|-----------------|--------------|)
(|-----------------|--------------|)
(|-----------------|--------------|)
(|-----------------|--------------|)
(|---------5-7-5-4-|-4-5-7-5-4-5--|)
(|-3-3-s/7---------|--------------|)


Verse 2 
(Chords as Verse 1, but with the last D note from Riff D overlapping 1st word)

We survived, the cold winter's nights, last year
Anytime now, my heart could melt with fear
I'm scared of losing the most precious thing I own
Wake up one day to find the bird has flown


Chorus

We could have been happy for ever and ever, I'm all alone
Remember that fate brought us together
Shattered dreams have left you scarred beyond repair
I hope you find someone who cares

Interlude
E           G
Someone who cares
A           D
Someone who cares
D               G          A    D  Dsus4 D
(instrumental break)
D                  G             A        
(instrumental break)
G        A                 D              G (with Riff C)
And when time has left you too weak to resist
G     A                D Dsus4 D
I hope you will remember this
            
Hard to play? Try these video lessons and learn fast. | Correct




comments powered by Disqus
↑ Back to top | Tablatures and chords are parodies/interpretations of the original songs. You may use it for private study, scholarship, research or language learning purposes only