>
 >
Another Girl Another Planet

Another Girl Another Planet Guitar Tabs

Only Ones - Another Girl Another Planet chords, tabs, tablatures, lyrics

Guitar lessons | Add/correct | Request | Top 50 tabs Artists:  A B C D E F G H I J K L M N O P Q R S T U V W X Y Z 0-9

Another Girl Another Planet Guitar Tabs – Only Ones

CD, Sheet music, Poster

Do you like Another Girl Another Planet? Share with your friends now
Bass TabsChordsChords v2TabsUkulele
This work below is 100% credited to James McMartin
 thanks to "Biatch" for finding it 



NOTES: Chord definitions are at bottom of page.
       Lyrics may be incorrect - may be "I'll get killed.." and "I can't face..."
       Last few notes of solo have echo - improvise!
       
       

Another Girl, Another Planet
----------------------------
Only Ones


(Muffled, repeat, gradually louder)
 
     
E--------------------------|--------------------------|
B--------------------------|--------------------------|
G--------------------------|--------------------------|   
D--------------------------|--------------------------|
A--------------------------|--------------------------|
E----0-0-0-0-0-0-0-0-------|----2-2-2-2-2-2-2-2-------|

E--------------------------|--------------------------|
B--------------------------|--------------------------|
G--------------------------|--------------------------|   
D--------------------------|--------------------------|
A--------------------------|--------------------------|
E----4-4-4-4-4-4-4-4-------|----0-0-0-0-0-0-0-0-------|

     E                          B/F#
E--------------------------|--------------------------|
B--------------------------|--------------------------|
G--------------------------|--------------------------|   
D--------------------------|--------------------------|
A----2-2-2-2-2-2-2-2-------|----2-2-2-2-2-2-2-2-------|
E----0-0-0-0-0-0-0-0-------|----2-2-2-2-2-2-2-2-------|

     C#/G#                      A/E
E--------------------------|--------------------------|
B--------------------------|--------------------------|
G--------------------------|--------------------------|   
D--------------------------|----2-2-2-2-2-2-2-2-------|
A----4-4-4-4-4-4-4-4-------|----0-0-0-0-0-0-0-0-------|
E----4-4-4-4-4-4-4-4-------|----0-0-0-0-0-0-0-0-------|


(2nd time)
    hammer-on/pull-off
E--------------------------|
B--------------------------|
G--------------------------| 
D---02020202020202020202---|
A--------------------------|
E--------------------------|

Third time slide pick down neck on last bar.





INTRO SOLO

   E           B        C#m      A       E           B           C#m             A
E--------------------------------------------------------------------------|
B--------------------------------------------------------------------------|
G-------------------------------------------------------------------------- 
D-------------------------------------------1---1-2-1-2-4-2-4-4s6s4-2-4-2--|
A------2-4-2--4-6-4--4-2-0--2-4-2-0-2-4-2-4---4----------------------------|
E-0--4---------------------------------------------------------------------|


     E           B           C#m               A
E---------------------------------------------------|
B---------------------------------------------------|
G----------4---4-6-4-6-8-6-8-9-8-9b11b9-8-9-11-9----|   
D--4s6-4-6---6--------------------------------------|
A---------------------------------------------------|
E---------------------------------------------------|


    E               B                   C#m                          A
E----------9-------12------------------------------------------------12----|
B-------9----12b14----12b14b12-12-9-12-------------------------------12----|
G--9b11---------------------------------11b9-9t119t119t9119t119t119-------- 
D--------------------------------------------------------------------------|
A--------------------------------------------------------------------------|
E--------------------------------------------------------------------------|



E        B
I always flirt with death
C#m                    A 
I'll have killed but I don't care about it 
E     B
I can face your threats and
C#m                   A (w/FILL1)
Stand up straight and tall and shout about it


FILL1
E-----------------------------|
B-----------------------------|
G-----------------------------|   
D--2--------2-----------------|
A--0--------0----0--2-4-6-7---|
E---------4---4---------------|




CHORUS
 
E           B                     C#m  A
I think I'm on another world with you
E    B
With you
E       B                  C#m  A
I'm on another planet with you
E    B
With you




E        B
You get under my skin
C#                A 
I don't find it irritating 
E          B
You always play to win but
C#                A (w/FILL1)
I won't need rehabilitating, oh no



CHORUS (1x)



E       A     E       A
Another girl, another planet
E       B     D       A 
Another girl, another planet


      Oh,  Oh

GTR SOLO
          E    B    C#m                           A
E-------------------------------------------------------------|
B-------------------------------------------------------------|
G---9b11-9b11--11--9b11-11-119b11-11-9b11-11-9-11-9-----------|   
D-------------------------------------------------------------|
A-------------------------------------------------------------|
E-------------------------------------------------------------|


     E             B              C#m                      A
E------------------9----9-11-9-11-12-11-12-14-12-11-12-14-12--|
B--7s9-7-9-12-9-12---12---------------------------------------|
G-------------------------------------------------------------|   
D-------------------------------------------------------------|
A-------------------------------------------------------------|
E-------------------------------------------------------------|


      E                    B
E--17b19-19-19-19-19-19-19-18-18-18-18-18b17p15-17-15---------|
B-----------------------------------------------------17------|
G-------------------------------------------------------------|   
D-------------------------------------------------------------|
A-------------------------------------------------------------|
E-------------------------------------------------------------|


   C#m                        A
E--17-15-12-------15-12-------15-12-------15-12---------------|
B-----------15-12-------15-12-------15-12-------15-12---------|
G-------------------------------------------------------------|   
D-------------------------------------------------------------|
A-------------------------------------------------------------|
E-------------------------------------------------------------|

            E                          B
E--15-------------------------------------------------15-12---|
B-----17-17b19-17-17s19-17-17b19-17b19-17b19b17-15-12---------|
G-------------------------------------------------------------|   
D-------------------------------------------------------------|
A-------------------------------------------------------------|
E-------------------------------------------------------------|


      Cm3                         A                                
E------------------------------------------|
B--15b17b15----15-14-12-14p12----b12-------|
G-----------14-15-14-12-14p12----b12-------|   
D-----------------------------12----12-----|
A------------------------------------------|
E------------------------------------------|


      E                                B
E-----------12----------12---------------------14-----------14-------|
B--------12----------12----------12 --------14----------14-----------|
G--14b16-------14b16-------14b16------16b18-------16b18-------16b18--|   
D--------------------------------------------------------------------|
A--------------------------------------------------------------------|
E--------------------------------------------------------------------|


    C#m                                A      
E--------16----------16---------------------17-----------17------17--------|
B-----16----------16----------16---------17----------17--------------17-12-|
G18b20-------18b20-------18b20------19b21-------19b21-------19b21-----------
D--------------------------------------------------------------------------|
A--------------------------------------------------------------------------|
E--------------------------------------------------------------------------|



      E                                   B
E-----16-12----16-12----16-12----16-12----11----14-11----14-11----14-11----|
B-----------12-------12-------12-------12----12-------12-------12-------12-|
G-------------------------------------------------------------------------- 
D--------------------------------------------------------------------------|
A--------------------------------------------------------------------------|
E--------------------------------------------------------------------------|


      C#m                                 A
E-----16-12----16-12----16-12----16-12----17-12-0-17-12-0-18-13-0-19---|
B-----------12-------12-------12-------12------------------------------|
G----------------------------------------------------------------------|   
D----------------------------------------------------------------------|
A----------------------------------------------------------------------|
E----------------------------------------------------------------------|



E              B
Space travel's in my blood
C#                   A 
There ain't nothing I can do about it
E             B 
Long journeys wear me out but
C#             A  (w/FILL1)
I know I can't live without it, oh no

CHORUS

E           B                     C#m  A
I think I'm on another world with you
E    B
With you
E       B                  C#m  A
I'm on another planet with you
E    B
With you


E       B    C#m    B          A
Another girl is     loving you now
E       B     C#m  B           A    
Another planet is holding you down
A6   D2  B/D#  B/D#        E
     A - no  - ther  planet 



CHORD DEFINITIONS

    E  B  C#m A  D  A6 D2 B/D# 
E-----------------------------|
B---9--4--5---2--7------------|
G---9--4--6---2--7------------|   
D---9--4--6---2--7---4--4--4--|
A---7--2--4---0--5---0--5--6--|
E-----------------------------|


+---------------------------------+
| James McMartin                  |   
| Weird Flower Fanzine            |
+---------------------------------+





Comments


Popular Only Ones tabs & chords
Another Girl Another Planet Bass Tabs
Another Girl Another Planet Chords
Another Girl Another Planet 1 Chords
Flaming Torch Chords
Flaming Torch 1 Chords
Curtains For You Tabs
Someone Who Cares Tabs
Another Girl Another Planet Ukulele
No Peace For The Wicked Ukulele
Youve Got To Pay Ukulele


Song lyrics



↑ Back to top | Tablatures and chords are parodies/interpretations of the original songs. You may use it for private study, scholarship, research or language learning purposes only
© 2014 AZChords.com Contact us | Privacy policy | DMCA | Add/correct tabs | Request tabs | Top 50 tabs