» » »

Another Girl Another Planet Bass tabs (ver.1)

Artists:  A B C D E F G H I J K L M N O P Q R S T U V W X Y Z # 

Another Girl Another Planet Bass tabs (ver.1)

Only Ones
Rating:
2/5 (1 vote)

Hard to play? Try these video lessons and learn fast.
                -------------------------------------------------------------------------------
			     SONG NAME - Band Name
-------------------------------------------------------------------------------


Tuning:EADG

Intro
G|---------------------------------REST-------------------------------------|
D|---------------------------------REST-------------------------------------|
A|--------------------------------------------------------------------------|
E|--------------------------------------------------------------------------|
Guitar Solo
G|----------------------------------|
D|----------------------------------|
A|-77-777--22-222--44-444-00-0000---|X4
E|----------------------------------|
Verse
G|----------------------------------|
D|----------------------------------|
A|-77-777--22-222--44-444-00-0000---|X4
E|----------------------------------|
Chorus
G|----------------------------------|
D|------------------------22--------|
A|-77-777--22-222--4--00------2-----|X2
E|----------------------------------|
Verse
G|----------------------------------|
D|----------------------------------|
A|-77-777--22-222--44-444-00-0000---|X4
E|----------------------------------|
Chorus
G|----------------------------------|
D|------------------------22--------|
A|-77-777--22-222--4--00------2-----|X2
E|----------------------------------|
Bridge
G|----------------------------------|
D|----------------------------------|
A|-7~~-------------7~~----0~~-------|
E|---------5~~----------------------|

G|----------------------------------|
D|----------------------------------|
A|-7~~-------------2~~----7~~-------|
E|---------5~~----------------------|
Guitar Solo
G|----------------------------------|
D|----------------------------------|
A|-77-777--22-222--44-444-00-0000---|Till End Of Solo.
E|----------------------------------|
Verse
G|----------------------------------|
D|----------------------------------|
A|-77-777--22-222--44-444-00-0000---|X4
E|----------------------------------|
Chorus
G|----------------------------------|
D|------------------------22--------|
A|-77-777--22-222--4--00------2-----|X2
E|----------------------------------|
Outro
G|----------------------------------|
D|------------------------22--------|
A|-77-777--22-222--4--00------2-----|X2
E|---------------------------------0|



| /  slide up
| \  slide down
| h  hammer-on
| p  pull-off
| ~  vibrato
| +  harmonic
| x  Mute note
===============================================================================
            
Hard to play? Try these video lessons and learn fast. | Correct




comments powered by Disqus
↑ Back to top | Tablatures and chords are parodies/interpretations of the original songs. You may use it for private study, scholarship, research or language learning purposes only